  0
SECTION
  2
HEADER
  9
$ACADVER
  1
AC1024
  9
$ACADMAINTVER
 70
     6
  9
$DWGCODEPAGE
  3
ANSI_1252
  9
$INSBASE
 10
0.0
 20
0.0
 30
0.0
  9
$EXTMIN
 10
23.191328
 20
27.845016
 30
0.0
  9
$EXTMAX
 10
35.88606
 20
34.615162
 30
0.0
  9
$LIMMIN
 10
23.191328
 20
27.845016
  9
$LIMMAX
 10
35.88606
 20
34.615162
  9
$ORTHOMODE
 70
     0
  9
$REGENMODE
 70
     1
  9
$FILLMODE
 70
     1
  9
$QTEXTMODE
 70
     0
  9
$MIRRTEXT
 70
     1
  9
$LTSCALE
 40
1.0
  9
$ATTMODE
 70
     1
  9
$TEXTSIZE
 40
0.2
  9
$TRACEWID
 40
0.05
  9
$TEXTSTYLE
  7
STANDARD
  9
$CLAYER
  8
0
  9
$CELTYPE
  6
BYLAYER
  9
$CECOLOR
 62
   256
  9
$CELTSCALE
 40
1.0
  9
$DISPSILH
 70
     0
  9
$DIMSCALE
 40
1.0
  9
$DIMASZ
 40
0.18
  9
$DIMEXO
 40
0.0625
  9
$DIMDLI
 40
0.38
  9
$DIMRND
 40
0.0
  9
$DIMDLE
 40
0.0
  9
$DIMEXE
 40
0.18
  9
$DIMTP
 40
0.0
  9
$DIMTM
 40
0.0
  9
$DIMTXT
 40
0.18
  9
$DIMCEN
 40
0.09
  9
$DIMTSZ
 40
0.0
  9
$DIMTOL
 70
     0
  9
$DIMLIM
 70
     0
  9
$DIMTIH
 70
     1
  9
$DIMTOH
 70
     1
  9
$DIMSE1
 70
     0
  9
$DIMSE2
 70
     0
  9
$DIMTAD
 70
     0
  9
$DIMZIN
 70
     0
  9
$DIMBLK
  1

  9
$DIMASO
 70
     1
  9
$DIMSHO
 70
     1
  9
$DIMPOST
  1

  9
$DIMAPOST
  1

  9
$DIMALT
 70
     0
  9
$DIMALTD
 70
     2
  9
$DIMALTF
 40
25.4
  9
$DIMLFAC
 40
1.0
  9
$DIMTOFL
 70
     0
  9
$DIMTVP
 40
0.0
  9
$DIMTIX
 70
     0
  9
$DIMSOXD
 70
     0
  9
$DIMSAH
 70
     0
  9
$DIMBLK1
  1

  9
$DIMBLK2
  1

  9
$DIMSTYLE
  2
STANDARD
  9
$DIMCLRD
 70
     0
  9
$DIMCLRE
 70
     0
  9
$DIMCLRT
 70
     0
  9
$DIMTFAC
 40
1.0
  9
$DIMGAP
 40
0.09
  9
$DIMJUST
 70
     0
  9
$DIMSD1
 70
     0
  9
$DIMSD2
 70
     0
  9
$DIMTOLJ
 70
     1
  9
$DIMTZIN
 70
     0
  9
$DIMALTZ
 70
     0
  9
$DIMALTTZ
 70
     0
  9
$DIMUPT
 70
     0
  9
$DIMDEC
 70
     4
  9
$DIMTDEC
 70
     4
  9
$DIMALTU
 70
     2
  9
$DIMALTTD
 70
     2
  9
$DIMTXSTY
  7
STANDARD
  9
$DIMAUNIT
 70
     0
  9
$DIMADEC
 70
     0
  9
$DIMALTRND
 40
0.0
  9
$DIMAZIN
 70
     0
  9
$DIMDSEP
 70
    46
  9
$DIMATFIT
 70
     3
  9
$DIMFRAC
 70
     0
  9
$DIMLDRBLK
  1

  9
$DIMLUNIT
 70
     2
  9
$DIMLWD
 70
    -2
  9
$DIMLWE
 70
    -2
  9
$DIMTMOVE
 70
     2
  9
$DIMFXL
 40
1.0
  9
$DIMFXLON
 70
     0
  9
$DIMJOGANG
 40
0.7853981633974483
  9
$DIMTFILL
 70
     0
  9
$DIMTFILLCLR
 70
     0
  9
$DIMARCSYM
 70
     0
  9
$DIMLTYPE
  6

  9
$DIMLTEX1
  6

  9
$DIMLTEX2
  6

  9
$DIMTXTDIRECTION
 70
     0
  9
$LUNITS
 70
     2
  9
$LUPREC
 70
     6
  9
$SKETCHINC
 40
0.1
  9
$FILLETRAD
 40
0.5
  9
$AUNITS
 70
     0
  9
$AUPREC
 70
     0
  9
$MENU
  1
.
  9
$ELEVATION
 40
0.0
  9
$PELEVATION
 40
0.0
  9
$THICKNESS
 40
0.0
  9
$LIMCHECK
 70
     0
  9
$CHAMFERA
 40
0.5
  9
$CHAMFERB
 40
0.5
  9
$CHAMFERC
 40
1.0
  9
$CHAMFERD
 40
0.0
  9
$SKPOLY
 70
     0
  9
$TDCREATE
 40
2458041.507951389
  9
$TDUCREATE
 40
2458041.674618056
  9
$TDUPDATE
 40
2458041.507963715
  9
$TDUUPDATE
 40
2458041.674630382
  9
$TDINDWG
 40
0.0
  9
$TDUSRTIMER
 40
0.0
  9
$USRTIMER
 70
     1
  9
$ANGBASE
 50
0.0
  9
$ANGDIR
 70
     0
  9
$PDMODE
 70
     0
  9
$PDSIZE
 40
0.0
  9
$PLINEWID
 40
0.0
  9
$SPLFRAME
 70
     0
  9
$SPLINETYPE
 70
     6
  9
$SPLINESEGS
 70
     8
  9
$HANDSEED
  5
122
  9
$SURFTAB1
 70
     6
  9
$SURFTAB2
 70
     6
  9
$SURFTYPE
 70
     6
  9
$SURFU
 70
     6
  9
$SURFV
 70
     6
  9
$UCSBASE
  2

  9
$UCSNAME
  2

  9
$UCSORG
 10
0.0
 20
0.0
 30
0.0
  9
$UCSXDIR
 10
1.0
 20
0.0
 30
0.0
  9
$UCSYDIR
 10
0.0
 20
1.0
 30
0.0
  9
$UCSORTHOREF
  2

  9
$UCSORTHOVIEW
 70
     0
  9
$UCSORGTOP
 10
0.0
 20
0.0
 30
0.0
  9
$UCSORGBOTTOM
 10
0.0
 20
0.0
 30
0.0
  9
$UCSORGLEFT
 10
0.0
 20
0.0
 30
0.0
  9
$UCSORGRIGHT
 10
0.0
 20
0.0
 30
0.0
  9
$UCSORGFRONT
 10
0.0
 20
0.0
 30
0.0
  9
$UCSORGBACK
 10
0.0
 20
0.0
 30
0.0
  9
$PUCSBASE
  2

  9
$PUCSNAME
  2

  9
$PUCSORG
 10
0.0
 20
0.0
 30
0.0
  9
$PUCSXDIR
 10
1.0
 20
0.0
 30
0.0
  9
$PUCSYDIR
 10
0.0
 20
1.0
 30
0.0
  9
$PUCSORTHOREF
  2

  9
$PUCSORTHOVIEW
 70
     0
  9
$PUCSORGTOP
 10
0.0
 20
0.0
 30
0.0
  9
$PUCSORGBOTTOM
 10
0.0
 20
0.0
 30
0.0
  9
$PUCSORGLEFT
 10
0.0
 20
0.0
 30
0.0
  9
$PUCSORGRIGHT
 10
0.0
 20
0.0
 30
0.0
  9
$PUCSORGFRONT
 10
0.0
 20
0.0
 30
0.0
  9
$PUCSORGBACK
 10
0.0
 20
0.0
 30
0.0
  9
$USERI1
 70
     0
  9
$USERI2
 70
     0
  9
$USERI3
 70
     0
  9
$USERI4
 70
     0
  9
$USERI5
 70
     0
  9
$USERR1
 40
0.0
  9
$USERR2
 40
0.0
  9
$USERR3
 40
0.0
  9
$USERR4
 40
0.0
  9
$USERR5
 40
0.0
  9
$WORLDVIEW
 70
     1
  9
$SHADEDGE
 70
     3
  9
$SHADEDIF
 70
    70
  9
$TILEMODE
 70
     1
  9
$MAXACTVP
 70
    48
  9
$PINSBASE
 10
0.0
 20
0.0
 30
0.0
  9
$PLIMCHECK
 70
     0
  9
$PEXTMIN
 10
1.000000000000000E+20
 20
1.000000000000000E+20
 30
1.000000000000000E+20
  9
$PEXTMAX
 10
-1.000000000000000E+20
 20
-1.000000000000000E+20
 30
-1.000000000000000E+20
  9
$PLIMMIN
 10
0.0
 20
0.0
  9
$PLIMMAX
 10
12.0
 20
9.0
  9
$UNITMODE
 70
     0
  9
$VISRETAIN
 70
     1
  9
$PLINEGEN
 70
     0
  9
$PSLTSCALE
 70
     1
  9
$TREEDEPTH
 70
  3020
  9
$CMLSTYLE
  2
STANDARD
  9
$CMLJUST
 70
     0
  9
$CMLSCALE
 40
1.0
  9
$PROXYGRAPHICS
 70
     1
  9
$MEASUREMENT
 70
     0
  9
$CELWEIGHT
370
    -1
  9
$ENDCAPS
280
     0
  9
$JOINSTYLE
280
     0
  9
$LWDISPLAY
290
     0
  9
$INSUNITS
 70
     0
  9
$HYPERLINKBASE
  1

  9
$STYLESHEET
  1

  9
$XEDIT
290
     1
  9
$CEPSNTYPE
380
     0
  9
$PSTYLEMODE
290
     1
  9
$FINGERPRINTGUID
  2
{05C81ECB-240E-49BD-BBA0-D8E0FDBBE8A6}
  9
$VERSIONGUID
  2
{FAEB1C32-E019-11D5-929B-00C0DF256EC4}
  9
$EXTNAMES
290
     1
  9
$PSVPSCALE
 40
0.0
  9
$OLESTARTUP
290
     0
  9
$SORTENTS
280
   127
  9
$INDEXCTL
280
     0
  9
$HIDETEXT
280
     1
  9
$XCLIPFRAME
280
     2
  9
$HALOGAP
280
     0
  9
$OBSCOLOR
 70
   257
  9
$OBSLTYPE
280
     0
  9
$INTERSECTIONDISPLAY
280
     0
  9
$INTERSECTIONCOLOR
 70
   257
  9
$DIMASSOC
280
     2
  9
$PROJECTNAME
  1

  9
$CAMERADISPLAY
290
     0
  9
$LENSLENGTH
 40
50.0
  9
$CAMERAHEIGHT
 40
0.0
  9
$STEPSPERSEC
 40
2.0
  9
$STEPSIZE
 40
6.0
  9
$3DDWFPREC
 40
2.0
  9
$PSOLWIDTH
 40
0.25
  9
$PSOLHEIGHT
 40
4.0
  9
$LOFTANG1
 40
1.570796326794897
  9
$LOFTANG2
 40
1.570796326794897
  9
$LOFTMAG1
 40
0.0
  9
$LOFTMAG2
 40
0.0
  9
$LOFTPARAM
 70
     7
  9
$LOFTNORMALS
280
     1
  9
$LATITUDE
 40
37.795
  9
$LONGITUDE
 40
-122.394
  9
$NORTHDIRECTION
 40
0.0
  9
$TIMEZONE
 70
 -8000
  9
$LIGHTGLYPHDISPLAY
280
     1
  9
$TILEMODELIGHTSYNCH
280
     1
  9
$SOLIDHIST
280
     1
  9
$SHOWHIST
280
     1
  9
$DWFFRAME
280
     2
  9
$DGNFRAME
280
     2
  9
$REALWORLDSCALE
290
     1
  9
$INTERFERECOLOR
 62
   256
  9
$CSHADOW
280
     0
  9
$SHADOWPLANELOCATION
 40
0.0
  0
ENDSEC
  0
SECTION
  2
CLASSES
  0
CLASS
  1
SCALE
  2
AcDbScale
  3
ObjectDBX Classes
 90
     1153
 91
        4
280
     0
281
     0
  0
CLASS
  1
VISUALSTYLE
  2
AcDbVisualStyle
  3
ObjectDBX Classes
 90
     4095
 91
        4
280
     0
281
     0
  0
CLASS
  1
MATERIAL
  2
AcDbMaterial
  3
ObjectDBX Classes
 90
     1153
 91
        4
280
     0
281
     0
  0
CLASS
  1
DICTIONARYVAR
  2
AcDbDictionaryVar
  3
ObjectDBX Classes
 90
        0
 91
        4
280
     0
281
     0
  0
ENDSEC
  0
SECTION
  2
TABLES
  0
TABLE
  2
VPORT
  5
8
330
0
100
AcDbSymbolTable
 70
     1
  0
VPORT
  5
1E
330
8
100
AcDbSymbolTableRecord
100
AcDbViewportTableRecord
  2
*ACTIVE
 70
     0
 10
0.0
 20
0.0
 11
1.0
 21
1.0
 12
18.263482
 22
21.026555
 13
0.0
 23
0.0
 14
0.25
 24
0.25
 15
0.25
 25
0.25
 16
0.0
 26
0.0
 36
1.0
 17
0.0
 27
0.0
 37
0.0
 40
5.219816
 41
2.308567
 42
50.0
 43
0.0
 44
0.0
 50
0.0
 51
0.0
 71
     0
 72
   100
 73
     1
 74
     1
 75
     0
 76
     0
 77
     0
 78
     0
281
     0
 65
     1
110
0.0
120
0.0
130
0.0
111
1.0
121
0.0
131
0.0
112
0.0
122
1.0
132
0.0
 79
     0
146
0.0
348
D3
 60
     3
 61
     5
292
     1
282
     1
141
0.0
142
0.0
 63
   256
  0
ENDTAB
  0
TABLE
  2
LTYPE
  5
5
330
0
100
AcDbSymbolTable
 70
     2
  0
LTYPE
  5
12
330
5
100
AcDbSymbolTableRecord
100
AcDbLinetypeTableRecord
  2
BYBLOCK
 70
     0
  3

 72
    65
 73
     0
 40
0.0
  0
LTYPE
  5
13
330
5
100
AcDbSymbolTableRecord
100
AcDbLinetypeTableRecord
  2
BYLAYER
 70
     0
  3

 72
    65
 73
     0
 40
0.0
  0
LTYPE
  5
14
330
5
100
AcDbSymbolTableRecord
100
AcDbLinetypeTableRecord
  2
CONTINUOUS
 70
     0
  3
Solid line
 72
    65
 73
     0
 40
0.0
  0
LTYPE
  5
20
330
5
100
AcDbSymbolTableRecord
100
AcDbLinetypeTableRecord
  2
HIDDEN
 70
     0
  3
_ _ _ _ _ _ _ _ _ _ _ _ _ _ _ _ _ _ _ _ _ _ _
 72
    65
 73
     2
 40
0.375
 49
0.25
 74
     0
 49
-0.125
 74
     0
  0
ENDTAB
  0
TABLE
  2
LAYER
  5
2
330
0
100
AcDbSymbolTable
 70
     5
  0
LAYER
  5
E
330
2
100
AcDbSymbolTableRecord
100
AcDbLayerTableRecord
  2
0
 70
     0
 62
     7
  6
CONTINUOUS
370
    -3
390
0
347
EA
  0
LAYER
  5
21
330
2
100
AcDbSymbolTableRecord
100
AcDbLayerTableRecord
  2
4
 70
     0
 62
     7
  6
CONTINUOUS
370
    -3
390
0
347
EA
  0
LAYER
  5
22
330
2
100
AcDbSymbolTableRecord
100
AcDbLayerTableRecord
  2
5
 70
     0
 62
     7
  6
CONTINUOUS
370
    -3
390
0
347
EA
  0
LAYER
  5
23
330
2
100
AcDbSymbolTableRecord
100
AcDbLayerTableRecord
  2
default
 70
     0
 62
     7
  6
CONTINUOUS
370
    -3
390
0
347
EA
  0
LAYER
  5
24
330
2
100
AcDbSymbolTableRecord
100
AcDbLayerTableRecord
  2
Layer 1
 70
     0
 62
     7
  6
CONTINUOUS
370
    -3
390
0
347
EA
  0
ENDTAB
  0
TABLE
  2
STYLE
  5
3
330
0
100
AcDbSymbolTable
 70
     6
  0
STYLE
  5
F
330
3
100
AcDbSymbolTableRecord
100
AcDbTextStyleTableRecord
  2
STANDARD
 70
     0
 40
0.0
 41
1.0
 50
0.0
 71
     0
 42
0.2
  3
txt
  4

  0
STYLE
  5
25
330
3
100
AcDbSymbolTableRecord
100
AcDbTextStyleTableRecord
  2
Arial
 70
     0
 40
0.0
 41
1.0
 50
0.0
 71
     0
 42
0.2
  3
arial.ttf
  4

  0
STYLE
  5
26
330
3
100
AcDbSymbolTableRecord
100
AcDbTextStyleTableRecord
  2
Times New Roman_Bold
 70
     0
 40
0.0
 41
1.0
 50
0.0
 71
     0
 42
0.2
  3
timesbd.ttf
  4

  0
STYLE
  5
27
330
3
100
AcDbSymbolTableRecord
100
AcDbTextStyleTableRecord
  2
Times New Roman_Bold_Italic
 70
     0
 40
0.0
 41
1.0
 50
0.0
 71
     0
 42
0.2
  3
timesbi.ttf
  4

  0
STYLE
  5
28
330
3
100
AcDbSymbolTableRecord
100
AcDbTextStyleTableRecord
  2
Arial_Italic
 70
     0
 40
0.0
 41
1.0
 50
0.0
 71
     0
 42
0.2
  3
txt
  4

  0
STYLE
  5
29
330
3
100
AcDbSymbolTableRecord
100
AcDbTextStyleTableRecord
  2
Times New Roman_Italic
 70
     0
 40
0.0
 41
1.0
 50
0.0
 71
     0
 42
0.2
  3
txt
  4

  0
ENDTAB
  0
TABLE
  2
VIEW
  5
6
330
0
100
AcDbSymbolTable
 70
     0
  0
ENDTAB
  0
TABLE
  2
UCS
  5
7
330
0
100
AcDbSymbolTable
 70
     0
  0
ENDTAB
  0
TABLE
  2
APPID
  5
9
330
0
100
AcDbSymbolTable
 70
     1
  0
APPID
  5
10
330
9
100
AcDbSymbolTableRecord
100
AcDbRegAppTableRecord
  2
ACAD
 70
     0
  0
ENDTAB
  0
TABLE
  2
DIMSTYLE
  5
A
330
0
100
AcDbSymbolTable
 70
     1
100
AcDbDimStyleTable
  0
DIMSTYLE
105
1D
330
A
100
AcDbSymbolTableRecord
100
AcDbDimStyleTableRecord
  2
STANDARD
 70
     0
178
     0
340
F
  0
ENDTAB
  0
TABLE
  2
BLOCK_RECORD
  5
1
330
0
100
AcDbSymbolTable
 70
     7
  0
BLOCK_RECORD
  5
18
330
1
100
AcDbSymbolTableRecord
100
AcDbBlockTableRecord
  2
*MODEL_SPACE
340
CC
 70
     0
280
     1
281
     0
  0
BLOCK_RECORD
  5
15
330
1
100
AcDbSymbolTableRecord
100
AcDbBlockTableRecord
  2
*PAPER_SPACE
340
CD
 70
     0
280
     1
281
     0
  0
BLOCK_RECORD
  5
2A
330
1
100
AcDbSymbolTableRecord
100
AcDbBlockTableRecord
  2
block 13
340
0
102
{BLKREFS
331
58
102
}
 70
     0
280
     1
281
     0
  0
BLOCK_RECORD
  5
2B
330
1
100
AcDbSymbolTableRecord
100
AcDbBlockTableRecord
  2
block 16
340
0
102
{BLKREFS
331
59
102
}
 70
     0
280
     1
281
     0
  0
BLOCK_RECORD
  5
2C
330
1
100
AcDbSymbolTableRecord
100
AcDbBlockTableRecord
  2
block 19
340
0
102
{BLKREFS
331
5A
102
}
 70
     0
280
     1
281
     0
  0
BLOCK_RECORD
  5
2D
330
1
100
AcDbSymbolTableRecord
100
AcDbBlockTableRecord
  2
block 14
340
0
102
{BLKREFS
331
32
102
}
 70
     0
280
     1
281
     0
  0
BLOCK_RECORD
  5
2E
330
1
100
AcDbSymbolTableRecord
100
AcDbBlockTableRecord
  2
block 15
340
0
102
{BLKREFS
331
4C
102
}
 70
     0
280
     1
281
     0
  0
BLOCK_RECORD
  5
2F
330
1
100
AcDbSymbolTableRecord
100
AcDbBlockTableRecord
  2
block 17
340
0
102
{BLKREFS
331
35
102
}
 70
     0
280
     1
281
     0
  0
BLOCK_RECORD
  5
30
330
1
100
AcDbSymbolTableRecord
100
AcDbBlockTableRecord
  2
block 18
340
0
102
{BLKREFS
331
53
102
}
 70
     0
280
     1
281
     0
  0
ENDTAB
  0
ENDSEC
  0
SECTION
  2
BLOCKS
  0
BLOCK
  5
19
330
18
100
AcDbEntity
  8
0
100
AcDbBlockBegin
  2
*MODEL_SPACE
 70
     0
 10
0.0
 20
0.0
 30
0.0
  3
*MODEL_SPACE
  1
     0
  0
ENDBLK
  5
1A
330
18
100
AcDbEntity
  8
0
100
AcDbBlockEnd
  0
BLOCK
  5
16
330
15
100
AcDbEntity
 67
     1
  8
0
100
AcDbBlockBegin
  2
*PAPER_SPACE
 70
     0
 10
0.0
 20
0.0
 30
0.0
  3
*PAPER_SPACE
  1
     0
  0
ENDBLK
  5
17
330
15
100
AcDbEntity
 67
     1
  8
0
100
AcDbBlockEnd
  0
BLOCK
  5
31
330
2A
100
AcDbEntity
  8
0
  6
Continuous
 62
     7
100
AcDbBlockBegin
  2
block 13
 70
     0
 10
0.0
 20
0.0
 30
0.0
  3
block 13
  1
block 13
  0
INSERT
  5
32
330
2A
100
AcDbEntity
  8
Layer 1
100
AcDbBlockReference
  2
block 14
 10
0.0
 20
0.0
 30
0.0
  0
ENDBLK
  5
33
330
2A
100
AcDbEntity
  8
0
  6
Continuous
 62
     7
100
AcDbBlockEnd
  0
BLOCK
  5
34
330
2B
100
AcDbEntity
  8
0
  6
Continuous
 62
     7
100
AcDbBlockBegin
  2
block 16
 70
     0
 10
0.0
 20
0.0
 30
0.0
  3
block 16
  1
block 16
  0
INSERT
  5
35
330
2B
100
AcDbEntity
  8
Layer 1
100
AcDbBlockReference
  2
block 17
 10
0.0
 20
0.0
 30
0.0
  0
ENDBLK
  5
36
330
2B
100
AcDbEntity
  8
0
  6
Continuous
 62
     7
100
AcDbBlockEnd
  0
BLOCK
  5
37
330
2C
100
AcDbEntity
  8
0
  6
Continuous
 62
     7
100
AcDbBlockBegin
  2
block 19
 70
     0
 10
0.0
 20
0.0
 30
0.0
  3
block 19
  1
block 19
  0
SPLINE
  5
38
330
2C
100
AcDbEntity
  8
Layer 1
100
AcDbSpline
210
0.0
220
0.0
230
1.0
 70
    11
 71
     3
 72
    58
 73
    54
 74
    52
 42
0.000000001
 43
0.0000001
 44
0.0000000001
 12
0.9258476936773231
 22
0.3778968749703832
 32
0.0
 13
0.9258476936773231
 23
0.3778968749703832
 33
0.0
 40
0.0
 40
0.0
 40
0.0
 40
0.0
 40
0.0186556612855192
 40
0.0371288332113141
 40
0.0576878332113146
 40
0.0759018058971398
 40
0.0898632330806338
 40
0.106340233080633
 40
0.1228010904094599
 40
0.1423634518211095
 40
0.1521324518211099
 40
0.1611724518211096
 40
0.1702124518211093
 40
0.1861054518211095
 40
0.2019984518211096
 40
0.2106004518211094
 40
0.2192034518211093
 40
0.2266408654172463
 40
0.2438045563081938
 40
0.2581647808886101
 40
0.2718707808886101
 40
0.2828288272929644
 40
0.2974504548699485
 40
0.3145094548699482
 40
0.3307523012338096
 40
0.3441239269016179
 40
0.348700263646221
 40
0.3653639943509581
 40
0.3820277250556955
 40
0.3887817328288622
 40
0.4072771467469122
 40
0.4311550528527668
 40
0.4636700528527669
 40
0.4969141015231684
 40
0.5230674410804795
 40
0.5461044410804791
 40
0.5649182379327896
 40
0.5859896198760797
 40
0.5983485483895067
 40
0.5986405483895066
 40
0.5989315483895065
 40
0.6104862361827789
 40
0.6336372019725687
 40
0.6565547631866239
 40
0.6857167631866242
 40
0.7182552750456507
 40
0.7589272821266883
 40
0.7952332821266889
 40
0.8180598294784017
 40
0.8353100844910099
 40
0.8418625344908188
 40
0.859088134161077
 40
0.8763137338313349
 40
0.8763137338313349
 40
0.8763137338313349
 40
0.8763137338313349
 10
5.731215
 20
-4.185486
 30
0.0
 10
5.736972433658408
 20
-4.183136027966565
 30
0.0
 10
5.747596269002004
 20
-4.196609944644441
 30
0.0
 10
5.767053786987432
 20
-4.197129999483158
 30
0.0
 10
5.785430868207593
 20
-4.19790014929606
 30
0.0
 10
5.805181462546385
 20
-4.194828154845929
 30
0.0
 10
5.810869674152986
 20
-4.17797751445433
 30
0.0
 10
5.811771486937963
 20
-4.162292293565093
 30
0.0
 10
5.801177198400726
 20
-4.145760017246624
 30
0.0
 10
5.784721953544163
 20
-4.144437169641861
 30
0.0
 10
5.771860518726631
 20
-4.144816087898312
 30
0.0
 10
5.763255074807605
 20
-4.144194853767466
 30
0.0
 10
5.748652911849862
 20
-4.146933119203412
 30
0.0
 10
5.756895795884924
 20
-4.128790172640323
 30
0.0
 10
5.748650091428113
 20
-4.11072409721281
 30
0.0
 10
5.762779853060974
 20
-4.113287578681483
 30
0.0
 10
5.770386689906277
 20
-4.112826887357535
 30
0.0
 10
5.781553997022248
 20
-4.11270198186559
 30
0.0
 10
5.79512846959676
 20
-4.112389597315361
 30
0.0
 10
5.80662186605673
 20
-4.099660196090246
 30
0.0
 10
5.805453183253758
 20
-4.086270917003287
 30
0.0
 10
5.80082142015648
 20
-4.072734746049835
 30
0.0
 10
5.78472794478751
 20
-4.070804433883181
 30
0.0
 10
5.769410060840531
 20
-4.070475744979847
 30
0.0
 10
5.753582704646274
 20
-4.073914982035539
 30
0.0
 10
5.74381878802855
 20
-4.077971261408687
 30
0.0
 10
5.732812108689667
 20
-4.086244208513195
 30
0.0
 10
5.735790917341166
 20
-4.064240888416985
 30
0.0
 10
5.723239388022103
 20
-4.05187964157436
 30
0.0
 10
5.737935232917013
 20
-4.044769989765761
 30
0.0
 10
5.751750882413629
 20
-4.038131714802877
 30
0.0
 10
5.777595723780093
 20
-4.035628254565562
 30
0.0
 10
5.806385309707434
 20
-4.034963593229497
 30
0.0
 10
5.84011820843243
 20
-4.041205253494031
 30
0.0
 10
5.851150706684678
 20
-4.069563498094033
 30
0.0
 10
5.850672380527829
 20
-4.092025693748172
 30
0.0
 10
5.845100715422662
 20
-4.113113732343651
 30
0.0
 10
5.832364485678012
 20
-4.125082705508586
 30
0.0
 10
5.814828948714705
 20
-4.123396874356175
 30
0.0
 10
5.814908856259219
 20
-4.12774647303159
 30
0.0
 10
5.814829230164758
 20
-4.131841619625948
 30
0.0
 10
5.833581556137346
 20
-4.127235578982246
 30
0.0
 10
5.848162326636965
 20
-4.139381712513914
 30
0.0
 10
5.858259372548052
 20
-4.163594330940057
 30
0.0
 10
5.85790074847043
 20
-4.19195611080161
 30
0.0
 10
5.843428633237279
 20
-4.226689172568272
 30
0.0
 10
5.803104383303374
 20
-4.233300087234028
 30
0.0
 10
5.771080303770274
 20
-4.232731428746351
 30
0.0
 10
5.744696538044411
 20
-4.23054649990299
 30
0.0
 10
5.731594137933698
 20
-4.224008692001687
 30
0.0
 10
5.717200002173687
 20
-4.217338016652852
 30
0.0
 10
5.73075730622487
 20
-4.202874705322216
 30
0.0
 10
5.725898906091027
 20
-4.187655833428294
 30
0.0
 10
5.731215
 20
-4.185486
 30
0.0
 11
5.731215
 21
-4.185486
 31
0.0
 11
5.748128
 21
-4.193359
 31
0.0
 11
5.766208
 21
-4.19715
 31
0.0
 11
5.786767
 21
-4.19715
 31
0.0
 11
5.804118
 21
-4.19161
 31
0.0
 11
5.80995
 21
-4.178925
 31
0.0
 11
5.80995
 21
-4.162448
 31
0.0
 11
5.800618
 21
-4.148888
 31
0.0
 11
5.781518
 21
-4.14466
 31
0.0
 11
5.771749
 21
-4.14466
 31
0.0
 11
5.762709
 21
-4.14466
 31
0.0
 11
5.753669
 21
-4.14466
 31
0.0
 11
5.753669
 21
-4.128767
 31
0.0
 11
5.753669
 21
-4.112874
 31
0.0
 11
5.762271
 21
-4.112874
 31
0.0
 11
5.770874
 21
-4.112874
 31
0.0
 11
5.77831
 21
-4.112729
 31
0.0
 11
5.795224
 21
-4.109812
 31
0.0
 11
5.804701
 21
-4.099023
 31
0.0
 11
5.804701
 21
-4.085317
 31
0.0
 11
5.800035
 21
-4.075402
 31
0.0
 11
5.786038
 21
-4.071174
 31
0.0
 11
5.768979
 21
-4.071174
 31
0.0
 11
5.753086
 21
-4.074527
 31
0.0
 11
5.740984
 21
-4.080214
 31
0.0
 11
5.737047
 21
-4.082547
 31
0.0
 11
5.732527
 21
-4.066508
 31
0.0
 11
5.728007
 21
-4.050469
 31
0.0
 11
5.733693
 21
-4.046824
 31
0.0
 11
5.750753
 21
-4.03968
 31
0.0
 11
5.774373
 21
-4.03618
 31
0.0
 11
5.806888
 21
-4.03618
 31
0.0
 11
5.838382
 21
-4.046824
 31
0.0
 11
5.849609
 21
-4.070445
 31
0.0
 11
5.849609
 21
-4.093482
 31
0.0
 11
5.843923
 21
-4.111416
 31
0.0
 11
5.826572
 21
-4.123372
 31
0.0
 11
5.814907
 21
-4.127455
 31
0.0
 11
5.814907
 21
-4.127747
 31
0.0
 11
5.814907
 21
-4.128038
 31
0.0
 11
5.82628
 21
-4.130079
 31
0.0
 11
5.846839
 21
-4.140723
 31
0.0
 11
5.856025
 21
-4.161719
 31
0.0
 11
5.856025
 21
-4.190881
 31
0.0
 11
5.841298
 21
-4.219896
 31
0.0
 11
5.802514
 21
-4.232144
 31
0.0
 11
5.766208
 21
-4.232144
 31
0.0
 11
5.743608
 21
-4.228936
 31
0.0
 11
5.727715
 21
-4.222229
 31
0.0
 11
5.722175
 21
-4.21873
 31
0.0
 11
5.726695
 21
-4.202108
 31
0.0
 11
5.731215
 21
-4.185486
 31
0.0
  0
SPLINE
  5
39
330
2C
100
AcDbEntity
  8
Layer 1
100
AcDbSpline
210
0.0
220
0.0
230
1.0
 70
    11
 71
     3
 72
    21
 73
    17
 74
    15
 42
0.000000001
 43
0.0000001
 44
0.0000000001
 12
-0.9633203411522527
 22
0.2683540950354728
 32
0.0
 13
-0.9633203411522527
 23
0.2683540950354728
 33
0.0
 40
0.0
 40
0.0
 40
0.0
 40
0.0
 40
0.0210497804739143
 40
0.0355080452729834
 40
0.0511090452729836
 40
0.0657028667396181
 40
0.0800047451127543
 40
0.0954597451127545
 40
0.1095698170119336
 40
0.1241102984688869
 40
0.1398572984688871
 40
0.1542617212966161
 40
0.1685639972693418
 40
0.1764369972693418
 40
0.1765829972693418
 40
0.1767289972693417
 40
0.1767289972693417
 40
0.1767289972693417
 40
0.1767289972693417
 10
5.913208
 20
-4.232144
 30
0.0
 10
5.90644877276423
 20
-4.230261068403409
 30
0.0
 10
5.891703862672234
 20
-4.231277757198974
 30
0.0
 10
5.886758140587628
 20
-4.212223717756705
 30
0.0
 10
5.886785906629099
 20
-4.198101609831918
 30
0.0
 10
5.891005991274708
 20
-4.182146146558049
 30
0.0
 10
5.906688990938459
 20
-4.177317946957013
 30
0.0
 10
5.920814615302602
 20
-4.177344788956987
 30
0.0
 10
5.936498190439959
 20
-4.182014271090223
 30
0.0
 10
5.94047142162179
 20
-4.198005944118651
 30
0.0
 10
5.940511521400872
 20
-4.212340677301277
 30
0.0
 10
5.936401615509921
 20
-4.228067611407532
 30
0.0
 10
5.92342326818686
 20
-4.232674755613363
 30
0.0
 10
5.916062285288447
 20
-4.232242323142117
 30
0.0
 10
5.913354763645579
 20
-4.232138407947972
 30
0.0
 10
5.913254881589936
 20
-4.232157059899292
 30
0.0
 10
5.913208
 20
-4.232144
 30
0.0
 11
5.913208
 21
-4.232144
 31
0.0
 11
5.892941
 21
-4.226457
 31
0.0
 11
5.887546
 21
-4.213043
 31
0.0
 11
5.887546
 21
-4.197442
 31
0.0
 11
5.892941
 21
-4.183882
 31
0.0
 11
5.906064
 21
-4.178196
 31
0.0
 11
5.921519
 21
-4.178196
 31
0.0
 11
5.934496
 21
-4.183736
 31
0.0
 11
5.939745
 21
-4.197296
 31
0.0
 11
5.939745
 21
-4.213043
 31
0.0
 11
5.934496
 21
-4.226457
 31
0.0
 11
5.921373
 21
-4.232144
 31
0.0
 11
5.9135
 21
-4.232144
 31
0.0
 11
5.913354
 21
-4.232144
 31
0.0
 11
5.913208
 21
-4.232144
 31
0.0
  0
SPLINE
  5
3A
330
2C
100
AcDbEntity
  8
Layer 1
100
AcDbSpline
210
0.0
220
0.0
230
1.0
 70
    11
 71
     3
 72
    36
 73
    32
 74
    30
 42
0.000000001
 43
0.0000001
 44
0.0000000001
 12
-0.7945014069258487
 22
0.607262311026172
 32
0.0
 13
-0.7945014069258487
 23
0.607262311026172
 33
0.0
 40
0.0
 40
0.0
 40
0.0
 40
0.0
 40
0.0285491356261449
 40
0.045212866330882
 40
0.069561866330882
 40
0.0998991653866649
 40
0.1349446620445807
 40
0.1760616620445806
 40
0.209933946658997
 40
0.23595903255703
 40
0.2556430325570299
 40
0.2724076897858548
 40
0.2910829049385648
 40
0.3015155037039732
 40
0.3019535037039732
 40
0.3023905037039739
 40
0.3122194012006418
 40
0.3329655413235655
 40
0.3546804716020634
 40
0.3841334716020627
 40
0.4162805927951029
 40
0.4545093210632528
 40
0.5005843210632529
 40
0.5382489320528808
 40
0.5668718851150653
 40
0.5910758851150645
 40
0.6114094838373771
 40
0.6323783806133162
 40
0.6436741454833905
 40
0.6441111454833903
 40
0.6445491454833903
 40
0.6445491454833903
 40
0.6445491454833903
 40
0.6445491454833903
 10
5.991957
 20
-4.130954
 30
0.0
 10
5.984396223859504
 20
-4.125175061973956
 30
0.0
 10
5.967861660227699
 20
-4.119465701337711
 30
0.0
 10
5.963838221137951
 20
-4.094977078036715
 30
0.0
 10
5.962475168628845
 20
-4.071686203151327
 30
0.0
 10
5.976945685359956
 20
-4.041286097312192
 30
0.0
 10
6.015256103988185
 20
-4.035036012283388
 30
0.0
 10
6.050047739105773
 20
-4.033953154711265
 30
0.0
 10
6.087133561805831
 20
-4.043256197083449
 30
0.0
 10
6.094831649145664
 20
-4.071491773567987
 30
0.0
 10
6.094870928395658
 20
-4.092052878475061
 30
0.0
 10
6.090488725272921
 20
-4.110357431295522
 30
0.0
 10
6.081094593663128
 20
-4.12273243030412
 30
0.0
 10
6.066498153238406
 20
-4.123201651974732
 30
0.0
 10
6.066614623809897
 20
-4.127017396247926
 30
0.0
 10
6.06649863679723
 20
-4.130642422799412
 30
0.0
 10
6.082155132209204
 20
-4.129936042577064
 30
0.0
 10
6.094511248390027
 20
-4.141476077785733
 30
0.0
 10
6.103442736901403
 20
-4.164900872569307
 30
0.0
 10
6.103215275580822
 20
-4.192651159642191
 30
0.0
 10
6.089398467132408
 20
-4.226945211411171
 30
0.0
 10
6.046610431244439
 20
-4.233396822511621
 30
0.0
 10
6.00834949753231
 20
-4.234397952466448
 30
0.0
 10
5.967068728095017
 20
-4.225024238770515
 30
0.0
 10
5.956927275407118
 20
-4.193432779385258
 30
0.0
 10
5.956738094262898
 20
-4.16932073253983
 30
0.0
 10
5.96355035785081
 20
-4.147451722305862
 30
0.0
 10
5.975360720981171
 20
-4.135562487497374
 30
0.0
 10
5.992475527345917
 20
-4.13530480742363
 30
0.0
 10
5.991904752749964
 20
-4.131414726072277
 30
0.0
 10
5.992072997205411
 20
-4.13104266029741
 30
0.0
 10
5.991957
 20
-4.130954
 30
0.0
 11
5.991957
 21
-4.130954
 31
0.0
 11
5.969065
 21
-4.113895
 31
0.0
 11
5.964545
 21
-4.097856
 31
0.0
 11
5.964545
 21
-4.073507
 31
0.0
 11
5.97898
 21
-4.046824
 31
0.0
 11
6.01237
 21
-4.03618
 31
0.0
 11
6.053487
 21
-4.03618
 31
0.0
 11
6.084835
 21
-4.049011
 31
0.0
 11
6.094021
 21
-4.073361
 31
0.0
 11
6.094021
 21
-4.093045
 31
0.0
 11
6.089647
 21
-4.109229
 31
0.0
 11
6.075941
 21
-4.121914
 31
0.0
 11
6.06661
 21
-4.12658
 31
0.0
 11
6.06661
 21
-4.127018
 31
0.0
 11
6.06661
 21
-4.127455
 31
0.0
 11
6.075795
 21
-4.130954
 31
0.0
 11
6.093146
 21
-4.142327
 31
0.0
 11
6.101312
 21
-4.162448
 31
0.0
 11
6.101312
 21
-4.191901
 31
0.0
 11
6.086877
 21
-4.220625
 31
0.0
 11
6.050425
 21
-4.232144
 31
0.0
 11
6.00435
 21
-4.232144
 31
0.0
 11
5.969211
 21
-4.218584
 31
0.0
 11
5.95813
 21
-4.192193
 31
0.0
 11
5.95813
 21
-4.167989
 31
0.0
 11
5.964691
 21
-4.148743
 31
0.0
 11
5.981605
 21
-4.136349
 31
0.0
 11
5.991957
 21
-4.131829
 31
0.0
 11
5.991957
 21
-4.131392
 31
0.0
 11
5.991957
 21
-4.130954
 31
0.0
  0
SPLINE
  5
3B
330
2C
100
AcDbEntity
  8
Layer 1
100
AcDbSpline
210
0.0
220
0.0
230
1.0
 70
    11
 71
     3
 72
    18
 73
    14
 74
    12
 42
0.000000001
 43
0.0000001
 44
0.0000000001
 12
-0.02544630484548978
 22
0.9996761903585133
 32
0.0
 13
-0.02544630484548978
 23
0.9996761903585133
 33
0.0
 40
0.0
 40
0.0
 40
0.0
 40
0.0
 40
0.0224311528236958
 40
0.0389942160971359
 40
0.0550358557265505
 40
0.0686678570836514
 40
0.0814871545683037
 40
0.0951939321618886
 40
0.1094094319068853
 40
0.1244107203848794
 40
0.1405957203848795
 40
0.1545394426999575
 40
0.1737469960319152
 40
0.1737469960319152
 40
0.1737469960319152
 40
0.1737469960319152
 10
6.056112
 20
-4.177904
 30
0.0
 10
6.055921736682404
 20
-4.170429370199953
 30
0.0
 10
6.054071701628581
 20
-4.155200730768216
 30
0.0
 10
6.03523011267307
 20
-4.148277156816074
 30
0.0
 10
6.019754801409523
 20
-4.146980016214788
 30
0.0
 10
6.006163133782703
 20
-4.154757645442473
 30
0.0
 10
6.002777396541548
 20
-4.168547702243924
 30
0.0
 10
6.002484493004914
 20
-4.181828238776142
 30
0.0
 10
6.00661496541437
 20
-4.196959322417265
 30
0.0
 10
6.022455820167129
 20
-4.202636423129698
 30
0.0
 10
6.03697716037196
 20
-4.202254176745241
 30
0.0
 10
6.054745326308028
 20
-4.197806366550997
 30
0.0
 10
6.05627492041914
 20
-4.184304444580333
 30
0.0
 10
6.056112
 20
-4.177904
 30
0.0
 11
6.056112
 21
-4.177904
 31
0.0
 11
6.049988
 21
-4.156325
 31
0.0
 11
6.035116
 21
-4.149034
 31
0.0
 11
6.019077
 21
-4.148743
 31
0.0
 11
6.007558
 21
-4.156033
 31
0.0
 11
6.00333
 21
-4.168135
 31
0.0
 11
6.003184
 21
-4.181841
 31
0.0
 11
6.008287
 21
-4.195109
 31
0.0
 11
6.021847
 21
-4.201525
 31
0.0
 11
6.038032
 21
-4.201525
 31
0.0
 11
6.051008
 21
-4.196421
 31
0.0
 11
6.056112
 21
-4.177904
 31
0.0
  0
SPLINE
  5
3C
330
2C
100
AcDbEntity
  8
Layer 1
100
AcDbSpline
210
0.0
220
0.0
230
1.0
 70
    11
 71
     3
 72
    18
 73
    14
 74
    12
 42
0.000000001
 43
0.0000001
 44
0.0000000001
 12
0.05594668641623318
 22
-0.9984337575818656
 32
0.0
 13
0.05594668641623318
 23
-0.9984337575818656
 33
0.0
 40
0.0
 40
0.0
 40
0.0
 40
0.0
 40
0.017891216280622
 40
0.0327602317490384
 40
0.0454753742964111
 40
0.0568825979726608
 40
0.0684465564644578
 40
0.0802565564644574
 40
0.0923932039422419
 40
0.105304875019217
 40
0.1210518750192172
 40
0.1335916552405774
 40
0.1509568370133083
 40
0.1509568370133083
 40
0.1509568370133083
 40
0.1509568370133083
 10
6.006246
 20
-4.088087
 30
0.0
 10
6.006579651422285
 20
-4.09404139809959
 30
0.0
 10
6.009322008168173
 20
-4.106452149842322
 30
0.0
 10
6.024778187096659
 20
-4.111597276790535
 30
0.0
 10
6.037941823241766
 20
-4.113941419319946
 30
0.0
 10
6.048890780203939
 20
-4.106880523579062
 30
0.0
 10
6.05316604798325
 20
-4.095427279973558
 30
0.0
 10
6.052473534072131
 20
-4.083825083080626
 30
0.0
 10
6.050749159318471
 20
-4.0703979002459
 30
0.0
 10
6.036225658068197
 20
-4.065032055103237
 30
0.0
 10
6.023066729768296
 20
-4.065356982165177
 30
0.0
 10
6.006707771171113
 20
-4.070058825712805
 30
0.0
 10
6.005922158540267
 20
-4.082307672103854
 30
0.0
 10
6.006246
 20
-4.088087
 30
0.0
 11
6.006246
 21
-4.088087
 31
0.0
 11
6.012078
 21
-4.105001
 31
0.0
 11
6.025492
 21
-4.111416
 31
0.0
 11
6.038177
 21
-4.112291
 31
0.0
 11
6.047801
 21
-4.106167
 31
0.0
 11
6.052321
 21
-4.095523
 31
0.0
 11
6.052321
 21
-4.083713
 31
0.0
 11
6.048967
 21
-4.072049
 31
0.0
 11
6.037448
 21
-4.066216
 31
0.0
 11
6.021701
 21
-4.066216
 31
0.0
 11
6.010183
 21
-4.071174
 31
0.0
 11
6.006246
 21
-4.088087
 31
0.0
  0
LINE
  5
3D
330
2C
100
AcDbEntity
  8
Layer 1
100
AcDbLine
 10
6.178908
 20
-4.078756
 30
0.0
 11
6.179491
 21
-4.078756
 31
0.0
  0
LINE
  5
3E
330
2C
100
AcDbEntity
  8
Layer 1
100
AcDbLine
 10
6.142748
 20
-4.095961
 30
0.0
 11
6.178908
 21
-4.078756
 31
0.0
  0
LINE
  5
3F
330
2C
100
AcDbEntity
  8
Layer 1
100
AcDbLine
 10
6.135457
 20
-4.062717
 30
0.0
 11
6.142748
 21
-4.095961
 31
0.0
  0
LINE
  5
40
330
2C
100
AcDbEntity
  8
Layer 1
100
AcDbLine
 10
6.135457
 20
-4.062717
 30
0.0
 11
6.185615
 21
-4.039388
 31
0.0
  0
LINE
  5
41
330
2C
100
AcDbEntity
  8
Layer 1
100
AcDbLine
 10
6.185615
 20
-4.039388
 30
0.0
 11
6.222358
 21
-4.039388
 31
0.0
  0
LINE
  5
42
330
2C
100
AcDbEntity
  8
Layer 1
100
AcDbLine
 10
6.222358
 20
-4.228936
 30
0.0
 11
6.222358
 21
-4.039388
 31
0.0
  0
LINE
  5
43
330
2C
100
AcDbEntity
  8
Layer 1
100
AcDbLine
 10
6.179491
 20
-4.228936
 30
0.0
 11
6.222358
 21
-4.228936
 31
0.0
  0
LINE
  5
44
330
2C
100
AcDbEntity
  8
Layer 1
100
AcDbLine
 10
6.179491
 20
-4.228936
 30
0.0
 11
6.179491
 21
-4.078756
 31
0.0
  0
SPLINE
  5
45
330
2C
100
AcDbEntity
  8
Layer 1
100
AcDbSpline
210
0.0
220
0.0
230
1.0
 70
    11
 71
     3
 72
    43
 73
    39
 74
    37
 42
0.000000001
 43
0.0000001
 44
0.0000000001
 12
-0.9806623981034136
 22
0.19570707944799
 32
0.0
 13
-0.9806623981034136
 23
0.19570707944799
 33
0.0
 40
0.0
 40
0.0
 40
0.0
 40
0.0
 40
0.013414
 40
0.0268280000000001
 40
0.0433453916827081
 40
0.0598613709149548
 40
0.0876386334510649
 40
0.1300278908873547
 40
0.1540941116126786
 40
0.1729053780506399
 40
0.1875211830917596
 40
0.2042810929065529
 40
0.2233820929065529
 40
0.2392262202097522
 40
0.2536637592313449
 40
0.2599050287336176
 40
0.2769897531973016
 40
0.2940748446222838
 40
0.3030270935576068
 40
0.3237060789534139
 40
0.3480148349890486
 40
0.3822798349890482
 40
0.417810316775819
 40
0.449813154712477
 40
0.4829111547124768
 40
0.5137233186254507
 40
0.5491902703551952
 40
0.5675714547566425
 40
0.5789587987841144
 40
0.5903469110508595
 40
0.5906389110508594
 40
0.5909309110508594
 40
0.6266539110508593
 40
0.6623759110508591
 40
0.6806009110508593
 40
0.6988269110508596
 40
0.7660429110508589
 40
0.8332599110508592
 40
0.8332599110508592
 40
0.8332599110508592
 40
0.8332599110508592
 10
6.28479
 20
-4.228936
 30
0.0
 10
6.280405131530614
 20
-4.228060928412095
 30
0.0
 10
6.287545886905884
 20
-4.214193507449052
 30
0.0
 10
6.281272547453682
 20
-4.200373890876875
 30
0.0
 10
6.298256872167613
 20
-4.191318816245055
 30
0.0
 10
6.311515135871302
 20
-4.177309622040688
 30
0.0
 10
6.333582635071524
 20
-4.157918297655537
 30
0.0
 10
6.358662849298625
 20
-4.138902525308
 30
0.0
 10
6.372575520164455
 20
-4.112430900268665
 30
0.0
 10
6.372056579489509
 20
-4.093481626814041
 30
0.0
 10
6.368665649897827
 20
-4.075201324285647
 30
0.0
 10
6.349852896997996
 20
-4.070892006677401
 30
0.0
 10
6.333266154079171
 20
-4.070868350736365
 30
0.0
 10
6.316524020823614
 20
-4.075055998236167
 30
0.0
 10
6.307114860089468
 20
-4.081081670804711
 30
0.0
 10
6.295950068693959
 20
-4.092103948037769
 30
0.0
 10
6.296248673517027
 20
-4.069173593273906
 30
0.0
 10
6.282151655579249
 20
-4.057008127670593
 30
0.0
 10
6.298674578796645
 20
-4.048013585289281
 30
0.0
 10
6.312567301875228
 20
-4.038657381571149
 30
0.0
 10
6.340154849958075
 20
-4.035474606245111
 30
0.0
 10
6.370261852816162
 20
-4.034545583104902
 30
0.0
 10
6.40775044689023
 20
-4.043355750219247
 30
0.0
 10
6.41716304557626
 20
-4.079298788574648
 30
0.0
 10
6.417985555004988
 20
-4.110851968066767
 30
0.0
 10
6.405612394153955
 20
-4.143301516375021
 30
0.0
 10
6.383328050454989
 20
-4.161243236714832
 30
0.0
 10
6.366576383847526
 20
-4.175651549261334
 30
0.0
 10
6.357801190483043
 20
-4.185194019012425
 30
0.0
 10
6.347719755374754
 20
-4.188180965503619
 30
0.0
 10
6.347779116919456
 20
-4.192193064349484
 30
0.0
 10
6.347681385197822
 20
-4.204344277781534
 30
0.0
 10
6.385095510596974
 20
-4.190667252989203
 30
0.0
 10
6.423855095524472
 20
-4.182697666038341
 30
0.0
 10
6.417841916434262
 20
-4.210891113228772
 30
0.0
 10
6.424915952204018
 20
-4.249331263329503
 30
0.0
 10
6.343060398805582
 20
-4.21839268557629
 30
0.0
 10
6.306762394804439
 20
-4.233320947586418
 30
0.0
 10
6.28479
 20
-4.228936
 30
0.0
 11
6.28479
 21
-4.228936
 31
0.0
 11
6.28479
 21
-4.215522
 31
0.0
 11
6.28479
 21
-4.202108
 31
0.0
 11
6.297038
 21
-4.191026
 31
0.0
 11
6.309285
 21
-4.179945
 31
0.0
 11
6.32999
 21
-4.161428
 31
0.0
 11
6.360755
 21
-4.132267
 31
0.0
 11
6.371107
 21
-4.110541
 31
0.0
 11
6.371399
 21
-4.091732
 31
0.0
 11
6.366733
 21
-4.077881
 31
0.0
 11
6.351132
 21
-4.071757
 31
0.0
 11
6.332031
 21
-4.071757
 31
0.0
 11
6.316722
 21
-4.07584
 31
0.0
 11
6.30462
 21
-4.083713
 31
0.0
 11
6.299662
 21
-4.087504
 31
0.0
 11
6.293393
 21
-4.071611
 31
0.0
 11
6.287123
 21
-4.055718
 31
0.0
 11
6.294267
 21
-4.050323
 31
0.0
 11
6.312493
 21
-4.040554
 31
0.0
 11
6.336405
 21
-4.03618
 31
0.0
 11
6.37067
 21
-4.03618
 31
0.0
 11
6.403914
 21
-4.04872
 31
0.0
 11
6.415724
 21
-4.078464
 31
0.0
 11
6.415724
 21
-4.111562
 31
0.0
 11
6.404205
 21
-4.14014
 31
0.0
 11
6.378981
 21
-4.165073
 31
0.0
 11
6.365275
 21
-4.177321
 31
0.0
 11
6.356527
 21
-4.184611
 31
0.0
 11
6.347778
 21
-4.191901
 31
0.0
 11
6.347778
 21
-4.192193
 31
0.0
 11
6.347778
 21
-4.192485
 31
0.0
 11
6.383501
 21
-4.192485
 31
0.0
 11
6.419223
 21
-4.192485
 31
0.0
 11
6.419223
 21
-4.21071
 31
0.0
 11
6.419223
 21
-4.228936
 31
0.0
 11
6.352007
 21
-4.228936
 31
0.0
 11
6.28479
 21
-4.228936
 31
0.0
  0
SPLINE
  5
46
330
2C
100
AcDbEntity
  8
Layer 1
100
AcDbSpline
210
0.0
220
0.0
230
1.0
 70
    11
 71
     3
 72
    48
 73
    44
 74
    42
 42
0.000000001
 43
0.0000001
 44
0.0000000001
 12
-0.8958448679909974
 22
-0.4443669345194264
 32
0.0
 13
-0.8958448679909974
 23
-0.4443669345194264
 33
0.0
 40
0.0
 40
0.0
 40
0.0
 40
0.0
 40
0.0367430000000004
 40
0.0734859999999999
 40
0.0882083015863685
 40
0.1029314548491717
 40
0.1049932368454072
 40
0.1087953891306263
 40
0.1128783891306268
 40
0.1242513891306267
 40
0.1425903178343434
 40
0.15989786121866
 40
0.176764397110775
 40
0.1938990574809138
 40
0.2133521780789052
 40
0.2420761780789047
 40
0.2786153410687705
 40
0.3221842933283786
 40
0.3592192933283789
 40
0.3805236306567253
 40
0.3963439469936388
 40
0.4022790039436605
 40
0.4193608906368804
 40
0.4364427773301
 40
0.4411380673104957
 40
0.4547907881382273
 40
0.4721948867934298
 40
0.4899828867934293
 40
0.5094360073914207
 40
0.5268659410114901
 40
0.5466959410114899
 40
0.5642370354186245
 40
0.5915805101063814
 40
0.6157845101063815
 40
0.6246833021592387
 40
0.6323156248070311
 40
0.6362955567159959
 40
0.6864093402490716
 40
0.7365231237821482
 40
0.788721123782148
 40
0.8409201237821488
 40
0.859146123782149
 40
0.8773721237821493
 40
0.8773721237821493
 40
0.8773721237821493
 40
0.8773721237821493
 10
6.573222
 20
-4.07584
 30
0.0
 10
6.562249990671803
 20
-4.081282458091683
 30
0.0
 10
6.540244582932596
 20
-4.076934793822282
 30
0.0
 10
6.495750633850344
 20
-4.066459605409872
 30
0.0
 10
6.500446276433429
 20
-4.088866057073087
 30
0.0
 10
6.490901120637355
 20
-4.106184668056488
 30
0.0
 10
6.498353738345201
 20
-4.104519706652467
 30
0.0
 10
6.501546825960055
 20
-4.104381320628351
 30
0.0
 10
6.5080265100485
 20
-4.10445763974935
 30
0.0
 10
6.519219210241809
 20
-4.104254752244463
 30
0.0
 10
6.535103610235603
 20
-4.105283997341383
 30
0.0
 10
6.551251804482813
 20
-4.112847783703447
 30
0.0
 10
6.565107273685685
 20
-4.122583589733507
 30
0.0
 10
6.578750751595454
 20
-4.135296682349683
 30
0.0
 10
6.581348201057818
 20
-4.157949278775972
 30
0.0
 10
6.582824580208046
 20
-4.185619536581992
 30
0.0
 10
6.568499231382324
 20
-4.223164405777867
 30
0.0
 10
6.526479402316377
 20
-4.23408199550088
 30
0.0
 10
6.493491588901346
 20
-4.232558432027705
 30
0.0
 10
6.467989132914404
 20
-4.230884299478681
 30
0.0
 10
6.455575611713758
 20
-4.225539596908437
 30
0.0
 10
6.441628618436595
 20
-4.220082281783399
 30
0.0
 10
6.454226867714091
 20
-4.206728499314567
 30
0.0
 10
6.449929755679238
 20
-4.184704035334745
 30
0.0
 10
6.46181373034676
 20
-4.192193024667143
 30
0.0
 10
6.47246056835444
 20
-4.19535676470172
 30
0.0
 10
6.489053791119531
 20
-4.197987927587682
 30
0.0
 10
6.506834198608292
 20
-4.197596832728028
 30
0.0
 10
6.526525077939372
 20
-4.196132572780853
 30
0.0
 10
6.537495090042119
 20
-4.177973615727126
 30
0.0
 10
6.536542757630632
 20
-4.15969364620123
 30
0.0
 10
6.528093322002571
 20
-4.137324898686209
 30
0.0
 10
6.50104093230258
 20
-4.137056705297377
 30
0.0
 10
6.481916557195459
 20
-4.136961593534632
 30
0.0
 10
6.468162606083336
 20
-4.137220868751501
 30
0.0
 10
6.461532666956441
 20
-4.137955456456542
 30
0.0
 10
6.439979932990976
 20
-4.142119328059348
 30
0.0
 10
6.473565611607466
 20
-4.085354034261425
 30
0.0
 10
6.455712263890311
 20
-4.02515880051293
 30
0.0
 10
6.518617824168982
 20
-4.048526556151317
 30
0.0
 10
6.579843446104973
 20
-4.024135594076492
 30
0.0
 10
6.570067970161173
 20
-4.056933962939467
 30
0.0
 10
6.578664556188002
 20
-4.073140322750484
 30
0.0
 10
6.573222
 20
-4.07584
 30
0.0
 11
6.573222
 21
-4.07584
 31
0.0
 11
6.536479
 21
-4.07584
 31
0.0
 11
6.499736
 21
-4.07584
 31
0.0
 11
6.497694
 21
-4.09042
 31
0.0
 11
6.495653
 21
-4.105001
 31
0.0
 11
6.497694
 21
-4.104709
 31
0.0
 11
6.501485
 21
-4.104418
 31
0.0
 11
6.505568
 21
-4.104418
 31
0.0
 11
6.516941
 21
-4.104418
 31
0.0
 11
6.535166
 21
-4.106459
 31
0.0
 11
6.551059
 21
-4.113312
 31
0.0
 11
6.564911
 21
-4.122935
 31
0.0
 11
6.57643
 21
-4.13562
 31
0.0
 11
6.580804
 21
-4.154575
 31
0.0
 11
6.580804
 21
-4.183299
 31
0.0
 11
6.56564
 21
-4.216543
 31
0.0
 11
6.52496
 21
-4.232144
 31
0.0
 11
6.487925
 21
-4.232144
 31
0.0
 11
6.466783
 21
-4.229519
 31
0.0
 11
6.451911
 21
-4.224124
 31
0.0
 11
6.446662
 21
-4.221354
 31
0.0
 11
6.450599
 21
-4.204732
 31
0.0
 11
6.454536
 21
-4.18811
 31
0.0
 11
6.458764
 21
-4.190152
 31
0.0
 11
6.471595
 21
-4.194817
 31
0.0
 11
6.4888
 21
-4.197442
 31
0.0
 11
6.506588
 21
-4.197442
 31
0.0
 11
6.525543
 21
-4.193068
 31
0.0
 11
6.535312
 21
-4.178633
 31
0.0
 11
6.535312
 21
-4.158803
 31
0.0
 11
6.527584
 21
-4.143056
 31
0.0
 11
6.500902
 21
-4.137078
 31
0.0
 11
6.476698
 21
-4.137078
 31
0.0
 11
6.467804
 21
-4.13737
 31
0.0
 11
6.460222
 21
-4.138245
 31
0.0
 11
6.456285
 21
-4.138828
 31
0.0
 11
6.462555
 21
-4.089108
 31
0.0
 11
6.468825
 21
-4.039388
 31
0.0
 11
6.521023
 21
-4.039388
 31
0.0
 11
6.573222
 21
-4.039388
 31
0.0
 11
6.573222
 21
-4.057614
 31
0.0
 11
6.573222
 21
-4.07584
 31
0.0
  0
SPLINE
  5
47
330
2C
100
AcDbEntity
  8
Layer 1
100
AcDbSpline
210
0.0
220
0.0
230
1.0
 70
    11
 71
     3
 72
    18
 73
    14
 74
    12
 42
0.000000001
 43
0.0000001
 44
0.0000000001
 12
0.1261919795001146
 22
-0.9920058388486647
 32
0.0
 13
0.1261919795001146
 23
-0.9920058388486647
 33
0.0
 40
0.0
 40
0.0
 40
0.0
 40
0.0
 40
0.045294291042028
 40
0.073660692029817
 40
0.0864138413271477
 40
0.0998918508241024
 40
0.1133698603210571
 40
0.1266498602081057
 40
0.1544145787191948
 40
0.1818691558967803
 40
0.194861627755514
 40
0.2156071564303878
 40
0.2363527483718093
 40
0.2363527483718093
 40
0.2363527483718093
 40
0.2363527483718093
 10
6.665398
 20
-4.02714
 30
0.0
 10
6.667303258748882
 20
-4.042117400393401
 30
0.0
 10
6.65170632969412
 20
-4.065892856190645
 30
0.0
 10
6.639058917460182
 20
-4.08869422760149
 30
0.0
 10
6.631604388809968
 20
-4.109032195770646
 30
0.0
 10
6.617867551890965
 20
-4.105340097652243
 30
0.0
 10
6.598714902350308
 20
-4.112632131642359
 30
0.0
 10
6.612567070051458
 20
-4.089039232052767
 30
0.0
 10
6.615047500304154
 20
-4.069824405196767
 30
0.0
 10
6.622683456757395
 20
-4.049158890571654
 30
0.0
 10
6.621802590111498
 20
-4.023456862626766
 30
0.0
 10
6.643622439746023
 20
-4.033803820496053
 30
0.0
 10
6.664525357562336
 20
-4.020280083887913
 30
0.0
 10
6.665398
 20
-4.02714
 30
0.0
 11
6.665398
 21
-4.02714
 31
0.0
 11
6.649943
 21
-4.069716
 31
0.0
 11
6.636966
 21
-4.09494
 31
0.0
 11
6.630405
 21
-4.105876
 31
0.0
 11
6.616991
 21
-4.107188
 31
0.0
 11
6.603577
 21
-4.1085
 31
0.0
 11
6.607951
 21
-4.095961
 31
0.0
 11
6.616116
 21
-4.069424
 31
0.0
 11
6.621948
 21
-4.042596
 31
0.0
 11
6.62399
 21
-4.029765
 31
0.0
 11
6.644694
 21
-4.028453
 31
0.0
 11
6.665398
 21
-4.02714
 31
0.0
  0
SPLINE
  5
48
330
2C
100
AcDbEntity
  8
Layer 1
100
AcDbSpline
210
0.0
220
0.0
230
1.0
 70
    11
 71
     3
 72
    18
 73
    14
 74
    12
 42
0.000000001
 43
0.0000001
 44
0.0000000001
 12
0.1296390332496939
 22
-0.9915612543146716
 32
0.0
 13
0.1296390332496939
 23
-0.9915612543146716
 33
0.0
 40
0.0
 40
0.0
 40
0.0
 40
0.0
 40
0.0452450204552937
 40
0.0736109639791751
 40
0.0864403583530343
 40
0.0999183678499889
 40
0.1133963773469437
 40
0.1266763772339923
 40
0.1544410957450814
 40
0.1818958853636525
 40
0.1948882000919827
 40
0.2156337287668565
 40
0.2363803187035179
 40
0.2363803187035179
 40
0.2363803187035179
 40
0.2363803187035179
 10
6.722263
 20
-4.02714
 30
0.0
 10
6.724218173570396
 20
-4.042094403078048
 30
0.0
 10
6.708676600893891
 20
-4.065889597526749
 30
0.0
 10
6.69614585125861
 20
-4.08876593435634
 30
0.0
 10
6.68845360302328
 20
-4.109008000598106
 30
0.0
 10
6.674742802112272
 20
-4.105348644577822
 30
0.0
 10
6.65557598735342
 20
-4.112629930519627
 30
0.0
 10
6.669432930900387
 20
-4.089040568973568
 30
0.0
 10
6.671909929915621
 20
-4.069823798632044
 30
0.0
 10
6.679550274695211
 20
-4.049159099608539
 30
0.0
 10
6.678664291458174
 20
-4.023456997966555
 30
0.0
 10
6.700498312910108
 20
-4.03380245749419
 30
0.0
 10
6.721366477379128
 20
-4.020282828419884
 30
0.0
 10
6.722263
 20
-4.02714
 30
0.0
 11
6.722263
 21
-4.02714
 31
0.0
 11
6.706953
 21
-4.069716
 31
0.0
 11
6.693977
 21
-4.09494
 31
0.0
 11
6.687269
 21
-4.105876
 31
0.0
 11
6.673855
 21
-4.107188
 31
0.0
 11
6.660441
 21
-4.1085
 31
0.0
 11
6.664815
 21
-4.095961
 31
0.0
 11
6.67298
 21
-4.069424
 31
0.0
 11
6.678813
 21
-4.042596
 31
0.0
 11
6.680854
 21
-4.029765
 31
0.0
 11
6.701558
 21
-4.028453
 31
0.0
 11
6.722263
 21
-4.02714
 31
0.0
  0
ENDBLK
  5
49
330
2C
100
AcDbEntity
  8
0
  6
Continuous
 62
     7
100
AcDbBlockEnd
  0
BLOCK
  5
4A
330
2D
100
AcDbEntity
  8
0
  6
Continuous
 62
     7
100
AcDbBlockBegin
  2
block 14
 70
     0
 10
0.0
 20
0.0
 30
0.0
  3
block 14
  1
block 14
  0
LINE
  5
4B
330
2D
100
AcDbEntity
  8
Layer 1
100
AcDbLine
 10
6.092773
 20
-3.926107
 30
0.0
 11
6.092773
 21
-2.471598
 31
0.0
  0
INSERT
  5
4C
330
2D
100
AcDbEntity
  8
Layer 1
100
AcDbBlockReference
  2
block 15
 10
0.0
 20
0.0
 30
0.0
  0
ENDBLK
  5
4D
330
2D
100
AcDbEntity
  8
0
  6
Continuous
 62
     7
100
AcDbBlockEnd
  0
BLOCK
  5
4E
330
2E
100
AcDbEntity
  8
0
  6
Continuous
 62
     7
100
AcDbBlockBegin
  2
block 15
 70
     0
 10
0.0
 20
0.0
 30
0.0
  3
block 15
  1
block 15
  0
SPLINE
  5
4F
330
2E
100
AcDbEntity
  8
Layer 1
100
AcDbSpline
210
0.0
220
0.0
230
1.0
 70
    11
 71
     3
 72
    26
 73
    22
 74
    20
 42
0.000000001
 43
0.0000001
 44
0.0000000001
 12
1.0
 22
0.0
 32
0.0
 13
1.0
 23
1.022676440690340E-11
 33
0.0
 40
0.0
 40
0.0
 40
0.0
 40
0.0
 40
0.0292854565441617
 40
0.0585709130883235
 40
0.0595968341379176
 40
0.0606213691544007
 40
0.1045208045266237
 40
0.1484193105262587
 40
0.1629739696084909
 40
0.1920815492570978
 40
0.2211907501564699
 40
0.2274467501564695
 40
0.256555306458698
 40
0.2856635307260764
 40
0.3002188344329731
 40
0.3441173404326084
 40
0.3880167758048315
 40
0.3889715768312239
 40
0.3899272723894432
 40
0.4193315769042584
 40
0.4487358814190744
 40
0.4487358814190744
 40
0.4487358814190744
 40
0.4487358814190744
 10
6.092773
 20
-2.496528
 30
0.0
 10
6.102534818848054
 20
-2.496528
 30
0.0
 10
6.115651147768403
 20
-2.507892226889254
 30
0.0
 10
6.13771876541557
 20
-2.535140609549142
 30
0.0
 10
6.143377088603041
 20
-2.526102591064533
 30
0.0
 10
6.15209150782866
 20
-2.51345905197713
 30
0.0
 10
6.122322966358611
 20
-2.483397431919824
 30
0.0
 10
6.113294916453578
 20
-2.453694163113357
 30
0.0
 10
6.107779651797308
 20
-2.424245420356012
 30
0.0
 10
6.09893157387314
 20
-2.404316713061596
 30
0.0
 10
6.10538941684109
 20
-2.372031774139246
 30
0.0
 10
6.080160641910148
 20
-2.372031931640116
 30
0.0
 10
6.086629179072765
 20
-2.404313926143212
 30
0.0
 10
6.077754259369884
 20
-2.424255917834125
 30
0.0
 10
6.072303384275398
 20
-2.453661588704035
 30
0.0
 10
6.062513364719308
 20
-2.483816624679616
 30
0.0
 10
6.034981145666265
 20
-2.512551193341245
 30
0.0
 10
6.042030486214641
 20
-2.526103212835342
 30
0.0
 10
6.046563906844681
 20
-2.535764266313087
 30
0.0
 10
6.07026873116887
 20
-2.507571284902669
 30
0.0
 10
6.082971565161729
 20
-2.4965280000001
 30
0.0
 10
6.092773
 20
-2.496528
 30
0.0
 11
6.092773
 21
-2.496528
 31
0.0
 11
6.117794
 21
-2.511746
 31
0.0
 11
6.142815
 21
-2.526964
 31
0.0
 11
6.143382
 21
-2.526109
 31
0.0
 11
6.143948
 21
-2.525255
 31
0.0
 11
6.127743
 21
-2.484456
 31
0.0
 11
6.111538
 21
-2.443658
 31
0.0
 11
6.108412
 21
-2.429443
 31
0.0
 11
6.102159
 21
-2.401015
 31
0.0
 11
6.095903
 21
-2.372586
 31
0.0
 11
6.089647
 21
-2.372586
 31
0.0
 11
6.083394
 21
-2.401015
 31
0.0
 11
6.077138
 21
-2.429443
 31
0.0
 11
6.074009
 21
-2.443658
 31
0.0
 11
6.057804
 21
-2.484456
 31
0.0
 11
6.041599
 21
-2.525255
 31
0.0
 11
6.042026
 21
-2.526109
 31
0.0
 11
6.042453
 21
-2.526964
 31
0.0
 11
6.067613
 21
-2.511746
 31
0.0
 11
6.092773
 21
-2.496528
 31
0.0
  0
ENDBLK
  5
50
330
2E
100
AcDbEntity
  8
0
  6
Continuous
 62
     7
100
AcDbBlockEnd
  0
BLOCK
  5
51
330
2F
100
AcDbEntity
  8
0
  6
Continuous
 62
     7
100
AcDbBlockBegin
  2
block 17
 70
     0
 10
0.0
 20
0.0
 30
0.0
  3
block 17
  1
block 17
  0
LINE
  5
52
330
2F
100
AcDbEntity
  8
Layer 1
100
AcDbLine
 10
6.092773
 20
-6.035102
 30
0.0
 11
6.092773
 21
-4.386149
 31
0.0
  0
INSERT
  5
53
330
2F
100
AcDbEntity
  8
Layer 1
100
AcDbBlockReference
  2
block 18
 10
0.0
 20
0.0
 30
0.0
  0
ENDBLK
  5
54
330
2F
100
AcDbEntity
  8
0
  6
Continuous
 62
     7
100
AcDbBlockEnd
  0
BLOCK
  5
55
330
30
100
AcDbEntity
  8
0
  6
Continuous
 62
     7
100
AcDbBlockBegin
  2
block 18
 70
     0
 10
0.0
 20
0.0
 30
0.0
  3
block 18
  1
block 18
  0
SPLINE
  5
56
330
30
100
AcDbEntity
  8
Layer 1
100
AcDbSpline
210
0.0
220
0.0
230
1.0
 70
    11
 71
     3
 72
    26
 73
    22
 74
    20
 42
0.000000001
 43
0.0000001
 44
0.0000000001
 12
1.0
 22
0.0
 32
0.0
 13
1.0
 23
1.018361350223300E-11
 33
0.0
 40
0.0
 40
0.0
 40
0.0
 40
0.0
 40
0.0292859762002223
 40
0.0585714327443841
 40
0.0595973537939786
 40
0.0606218888104613
 40
0.1045213241826844
 40
0.148420759554908
 40
0.1629744419755189
 40
0.1920829982777473
 40
0.2211921991771195
 40
0.2274481991771191
 40
0.2565567554793475
 40
0.2856659563787196
 40
0.3002202834672523
 40
0.3441197188394762
 40
0.3880191542116992
 40
0.3889739552380913
 40
0.389929650796311
 40
0.4193339553111262
 40
0.4487387773816647
 40
0.4487387773816647
 40
0.4487387773816647
 40
0.4487387773816647
 10
6.092773
 20
-6.010173
 30
0.0
 10
6.102534992066741
 20
-6.010173
 30
0.0
 10
6.115650753313629
 20
-5.998807613476728
 30
0.0
 10
6.137718767039082
 20
-5.971559393460183
 30
0.0
 10
6.143377088559927
 20
-5.980597408870222
 30
0.0
 10
6.152091509207716
 20
-5.993240949302077
 30
0.0
 10
6.122322461114146
 20
-6.023302792504131
 30
0.0
 10
6.113295361605777
 20
-6.053006310229186
 30
0.0
 10
6.107779296351815
 20
-6.08245514566562
 30
0.0
 10
6.098931665397306
 20
-6.10238387570453
 30
0.0
 10
6.105389403267356
 20
-6.134669224498996
 30
0.0
 10
6.080160655489355
 20
-6.134669067004824
 30
0.0
 10
6.086629087383444
 20
-6.102386662583434
 30
0.0
 10
6.077754615279654
 20
-6.082444648210672
 30
0.0
 10
6.072302935103968
 20
-6.053038882548109
 30
0.0
 10
6.062513853030042
 20
-6.022883589670213
 30
0.0
 10
6.034981144364821
 20
-5.994148807837178
 30
0.0
 10
6.042030486251665
 20
-5.980596787108046
 30
0.0
 10
6.046563905368685
 20
-5.970935736499682
 30
0.0
 10
6.070269133649846
 20
-5.999128558264001
 30
0.0
 10
6.082971392643154
 20
-6.010173000000099
 30
0.0
 10
6.092773
 20
-6.010173
 30
0.0
 11
6.092773
 21
-6.010173
 31
0.0
 11
6.117794
 21
-5.994954
 31
0.0
 11
6.142815
 21
-5.979736
 31
0.0
 11
6.143382
 21
-5.980591
 31
0.0
 11
6.143948
 21
-5.981445
 31
0.0
 11
6.127743
 21
-6.022244
 31
0.0
 11
6.111538
 21
-6.063043
 31
0.0
 11
6.108412
 21
-6.077257
 31
0.0
 11
6.102159
 21
-6.105686
 31
0.0
 11
6.095903
 21
-6.134115
 31
0.0
 11
6.089647
 21
-6.134115
 31
0.0
 11
6.083394
 21
-6.105686
 31
0.0
 11
6.077138
 21
-6.077257
 31
0.0
 11
6.074009
 21
-6.063043
 31
0.0
 11
6.057804
 21
-6.022244
 31
0.0
 11
6.041599
 21
-5.981445
 31
0.0
 11
6.042026
 21
-5.980591
 31
0.0
 11
6.042453
 21
-5.979736
 31
0.0
 11
6.067613
 21
-5.994954
 31
0.0
 11
6.092773
 21
-6.010173
 31
0.0
  0
ENDBLK
  5
57
330
30
100
AcDbEntity
  8
0
  6
Continuous
 62
     7
100
AcDbBlockEnd
  0
ENDSEC
  0
SECTION
  2
ENTITIES
  0
INSERT
  5
58
330
18
100
AcDbEntity
  8
Layer 1
100
AcDbBlockReference
  2
block 13
 10
23.191328
 20
34.615162
 30
0.0
 50
0.0000000000000284
  0
INSERT
  5
59
330
18
100
AcDbEntity
  8
Layer 1
100
AcDbBlockReference
  2
block 16
 10
23.191328
 20
34.615162
 30
0.0
 50
0.0000000000000284
  0
INSERT
  5
5A
330
18
100
AcDbEntity
  8
Layer 1
100
AcDbBlockReference
  2
block 19
 10
23.191328
 20
34.615162
 30
0.0
 50
0.0000000000000284
  0
TEXT
  5
5B
330
18
100
AcDbEntity
  8
0
100
AcDbText
 10
26.257608
 20
29.610875
 30
0.0
 40
0.126316
  1
and Chris Pappas for their
  7
Arial_Italic
100
AcDbText
  0
TEXT
  5
5C
330
18
100
AcDbEntity
  8
0
100
AcDbText
 10
26.225672
 20
29.856222
 30
0.0
 40
0.126316
  1
(Special thanks to Fred Barton
  7
Arial_Italic
100
AcDbText
  0
TEXT
  5
5D
330
18
100
AcDbEntity
  8
0
100
AcDbText
 10
26.254568
 20
29.376194
 30
0.0
 40
0.126316
  1
collaboration and input)
  7
Arial_Italic
100
AcDbText
  0
LINE
  5
5E
330
18
100
AcDbEntity
  8
0
  6
HIDDEN
 62
     5
100
AcDbLine
 10
25.185684
 20
28.708641
 30
0.0
 11
32.373184
 21
28.708641
 31
0.0
  0
LINE
  5
5F
330
18
100
AcDbEntity
  8
0
  6
HIDDEN
 62
     5
100
AcDbLine
 10
25.185684
 20
28.458641
 30
0.0
 11
32.373184
 21
28.458641
 31
0.0
  0
LINE
  5
60
330
18
100
AcDbEntity
  8
0
 62
     5
100
AcDbLine
 10
32.373184
 20
28.458641
 30
0.0
 11
32.373184
 21
28.708641
 31
0.0
  0
LINE
  5
61
330
18
100
AcDbEntity
  8
0
  6
HIDDEN
 62
     5
100
AcDbLine
 10
25.185684
 20
32.271141
 30
0.0
 11
30.310684
 21
32.271141
 31
0.0
  0
LINE
  5
62
330
18
100
AcDbEntity
  8
0
  6
HIDDEN
 62
     5
100
AcDbLine
 10
25.185684
 20
32.021141
 30
0.0
 11
30.310684
 21
32.021141
 31
0.0
  0
LINE
  5
63
330
18
100
AcDbEntity
  8
0
 62
     5
100
AcDbLine
 10
30.310684
 20
32.021141
 30
0.0
 11
30.310684
 21
32.271141
 31
0.0
  0
SOLID
  5
64
330
18
100
AcDbEntity
  8
0
 62
     1
100
AcDbTrace
 10
25.370633
 20
31.824768
 30
0.0
 11
25.370633
 21
31.763154
 31
0.0
 12
25.185684
 22
31.793961
 32
0.0
 13
25.185684
 23
31.793961
 33
0.0
  0
SOLID
  5
65
330
18
100
AcDbEntity
  8
0
 62
     1
100
AcDbTrace
 10
30.125735
 20
31.763154
 30
0.0
 11
30.125735
 21
31.824768
 31
0.0
 12
30.310684
 22
31.793961
 32
0.0
 13
30.310684
 23
31.793961
 33
0.0
  0
LINE
  5
66
330
18
100
AcDbEntity
  8
0
 62
     1
100
AcDbLine
 10
25.185684
 20
31.793961
 30
0.0
 11
27.541206
 21
31.793961
 31
0.0
  0
LINE
  5
67
330
18
100
AcDbEntity
  8
0
 62
     1
100
AcDbLine
 10
28.096051
 20
31.793961
 30
0.0
 11
30.310684
 21
31.793961
 31
0.0
  0
TEXT
  5
68
330
18
100
AcDbEntity
  8
0
 62
     1
100
AcDbText
 10
27.603706
 20
31.729497
 30
0.0
 40
0.126316
  1
5.125
  7
Arial
100
AcDbText
  0
LINE
  5
69
330
18
100
AcDbEntity
  8
0
 62
     1
100
AcDbLine
 10
25.185684
 20
31.668961
 30
0.0
 11
25.185684
 21
31.958641
 31
0.0
  0
LINE
  5
6A
330
18
100
AcDbEntity
  8
0
 62
     1
100
AcDbLine
 10
30.310684
 20
31.668961
 30
0.0
 11
30.310684
 21
31.958641
 31
0.0
  0
SOLID
  5
6B
330
18
100
AcDbEntity
  8
0
 62
     1
100
AcDbTrace
 10
25.370633
 20
28.957441
 30
0.0
 11
25.370633
 21
28.895827
 31
0.0
 12
25.185684
 22
28.926634
 32
0.0
 13
25.185684
 23
28.926634
 33
0.0
  0
SOLID
  5
6C
330
18
100
AcDbEntity
  8
0
 62
     1
100
AcDbTrace
 10
32.188235
 20
28.895827
 30
0.0
 11
32.188235
 21
28.957441
 31
0.0
 12
32.373184
 22
28.926634
 32
0.0
 13
32.373184
 23
28.926634
 33
0.0
  0
LINE
  5
6D
330
18
100
AcDbEntity
  8
0
 62
     1
100
AcDbLine
 10
25.185684
 20
28.926634
 30
0.0
 11
27.93324
 21
28.926634
 31
0.0
  0
LINE
  5
6E
330
18
100
AcDbEntity
  8
0
 62
     1
100
AcDbLine
 10
28.585759
 20
28.926634
 30
0.0
 11
32.373184
 21
28.926634
 31
0.0
  0
TEXT
  5
6F
330
18
100
AcDbEntity
  8
0
 62
     1
100
AcDbText
 10
27.99574
 20
28.86217
 30
0.0
 40
0.126316
  1
7.1875
  7
Arial
100
AcDbText
  0
LINE
  5
70
330
18
100
AcDbEntity
  8
0
 62
     1
100
AcDbLine
 10
25.185684
 20
28.771141
 30
0.0
 11
25.185684
 21
29.051634
 31
0.0
  0
LINE
  5
71
330
18
100
AcDbEntity
  8
0
 62
     1
100
AcDbLine
 10
32.373184
 20
28.771141
 30
0.0
 11
32.373184
 21
29.051634
 31
0.0
  0
SOLID
  5
72
330
18
100
AcDbEntity
  8
0
 62
     1
100
AcDbTrace
 10
34.837677
 20
29.977199
 30
0.0
 11
34.855684
 21
29.918269
 31
0.0
 12
34.669788
 22
29.893744
 32
0.0
 13
34.669788
 23
29.893744
 33
0.0
  0
TEXT
  5
73
330
18
100
AcDbEntity
  8
0
 62
     1
100
AcDbText
 10
35.271448
 20
29.936611
 30
0.0
 40
0.126316
  1
0.375 R
  7
Arial
100
AcDbText
  0
LINE
  5
74
330
18
100
AcDbEntity
  8
0
 62
     1
100
AcDbLine
 10
34.669788
 20
29.893744
 30
0.0
 11
35.021448
 21
30.001076
 31
0.0
  0
LINE
  5
75
330
18
100
AcDbEntity
  8
0
 62
     1
100
AcDbLine
 10
35.021448
 20
30.001076
 30
0.0
 11
35.208948
 21
30.001076
 31
0.0
  0
ARC
  5
76
330
18
100
AcDbEntity
  8
0
 62
     5
100
AcDbCircle
 10
34.309386
 20
29.781146
 30
0.0
 40
0.125
100
AcDbArc
 50
330.945783
 51
33.432026
  0
ARC
  5
77
330
18
100
AcDbEntity
  8
0
 62
     5
100
AcDbCircle
 10
34.309386
 20
29.781146
 30
0.0
 40
0.375
100
AcDbArc
 50
330.945784
 51
33.432026
  0
ARC
  5
78
330
18
100
AcDbEntity
  8
0
 62
     5
100
AcDbCircle
 10
29.197829
 20
26.406594
 30
0.0
 40
6.5
100
AcDbArc
 50
33.432026
 51
50.5505
  0
ARC
  5
79
330
18
100
AcDbEntity
  8
0
 62
     5
100
AcDbCircle
 10
29.197829
 20
26.406594
 30
0.0
 40
6.25
100
AcDbArc
 50
33.432026
 51
50.564313
  0
ARC
  5
7A
330
18
100
AcDbEntity
  8
0
 62
     5
100
AcDbCircle
 10
30.74951
 20
28.36772
 30
0.0
 40
4.0
100
AcDbArc
 50
49.86422300000001
 51
69.32755799999998
  0
ARC
  5
7B
330
18
100
AcDbEntity
  8
0
 62
     5
100
AcDbCircle
 10
30.74951
 20
28.36772
 30
0.0
 40
3.75
100
AcDbArc
 50
49.841491
 51
69.32755799999998
  0
ARC
  5
7C
330
18
100
AcDbEntity
  8
0
 62
     5
100
AcDbCircle
 10
31.279048
 20
29.771141
 30
0.0
 40
2.25
100
AcDbArc
 50
69.32755799999998
 51
90.0
  0
ARC
  5
7D
330
18
100
AcDbEntity
  8
0
 62
     5
100
AcDbCircle
 10
31.279048
 20
29.771141
 30
0.0
 40
2.5
100
AcDbArc
 50
69.32755799999998
 51
90.0
  0
ARC
  5
7E
330
18
100
AcDbEntity
  8
0
 62
     5
100
AcDbCircle
 10
32.014715
 20
31.055944
 30
0.0
 40
2.75
100
AcDbArc
 50
302.157146
 51
330.945784
  0
ARC
  5
7F
330
18
100
AcDbEntity
  8
0
 62
     5
100
AcDbCircle
 10
33.411853
 20
28.833641
 30
0.0
 40
0.125
100
AcDbArc
 50
270.0
 51
302.157146
  0
LINE
  5
80
330
18
100
AcDbEntity
  8
0
100
AcDbLine
 10
34.06585
 20
29.802391
 30
0.0
 11
34.982812
 21
29.802391
 31
0.0
  0
ARC
  5
81
330
18
100
AcDbEntity
  8
0
 62
     5
100
AcDbCircle
 10
32.014715
 20
31.055944
 30
0.0
 40
3.0
100
AcDbArc
 50
302.157146
 51
330.945784
  0
ARC
  5
82
330
18
100
AcDbEntity
  8
0
 62
     5
100
AcDbCircle
 10
33.411853
 20
28.833641
 30
0.0
 40
0.375
100
AcDbArc
 50
270.0
 51
302.157146
  0
LINE
  5
83
330
18
100
AcDbEntity
  8
0
 62
     5
100
AcDbLine
 10
32.373184
 20
28.708641
 30
0.0
 11
33.411853
 21
28.708641
 31
0.0
  0
LINE
  5
84
330
18
100
AcDbEntity
  8
0
 62
     5
100
AcDbLine
 10
32.373184
 20
28.458641
 30
0.0
 11
33.411853
 21
28.458641
 31
0.0
  0
LINE
  5
85
330
18
100
AcDbEntity
  8
0
 62
     5
100
AcDbLine
 10
30.310684
 20
32.271141
 30
0.0
 11
31.279048
 21
32.271141
 31
0.0
  0
LINE
  5
86
330
18
100
AcDbEntity
  8
0
 62
     5
100
AcDbLine
 10
30.310684
 20
32.021141
 30
0.0
 11
31.279048
 21
32.021141
 31
0.0
  0
TEXT
  5
87
330
18
100
AcDbEntity
  8
0
100
AcDbText
 10
26.099334
 20
30.544718
 30
0.0
 40
0.189474
  1
by Craig Reinbrecht
  7
Times New Roman_Bold_Italic
100
AcDbText
  0
TEXT
  5
88
330
18
100
AcDbEntity
  8
0
 62
     1
100
AcDbText
 10
25.277847
 20
30.227867
 30
0.0
 40
0.126316
  1
C
  7
Arial
100
AcDbText
  0
TEXT
  5
89
330
18
100
AcDbEntity
  8
0
 62
     5
100
AcDbText
 10
25.378622
 20
31.026364
 30
0.0
 40
0.126316
  1
(for old club standard torsos... TimK, Dewey, etc.)
  7
Arial
100
AcDbText
  0
TEXT
  5
8A
330
18
100
AcDbEntity
  8
0
 62
     5
100
AcDbText
 10
25.938058
 20
31.251599
 30
0.0
 40
0.252632
  1
B9 Collar v1.22
  7
Times New Roman_Bold
100
AcDbText
  0
TEXT
  5
8B
330
18
100
AcDbEntity
  8
0
100
AcDbText
 10
26.542027
 20
30.257724
 30
0.0
 40
0.168421
  1
10/5/2017
  7
Times New Roman_Italic
100
AcDbText
  0
LINE
  5
8C
330
18
100
AcDbEntity
  8
0
  6
HIDDEN
 62
     1
100
AcDbLine
 10
25.185684
 20
28.377375
 30
0.0
 11
25.185684
 21
32.356846
 31
0.0
  0
SOLID
  5
8D
330
18
100
AcDbEntity
  8
0
 62
     1
100
AcDbTrace
 10
30.495633
 20
32.427151
 30
0.0
 11
30.495633
 21
32.365537
 31
0.0
 12
30.310684
 22
32.396344
 32
0.0
 13
30.310684
 23
32.396344
 33
0.0
  0
SOLID
  5
8E
330
18
100
AcDbEntity
  8
0
 62
     1
100
AcDbTrace
 10
34.500735
 20
32.365537
 30
0.0
 11
34.500735
 21
32.427151
 31
0.0
 12
34.685684
 22
32.396344
 32
0.0
 13
34.685684
 23
32.396344
 33
0.0
  0
LINE
  5
8F
330
18
100
AcDbEntity
  8
0
 62
     1
100
AcDbLine
 10
30.310684
 20
32.396344
 30
0.0
 11
32.72557
 21
32.396344
 31
0.0
  0
LINE
  5
90
330
18
100
AcDbEntity
  8
0
 62
     1
100
AcDbLine
 10
33.28555
 20
32.396344
 30
0.0
 11
34.685684
 21
32.396344
 31
0.0
  0
TEXT
  5
91
330
18
100
AcDbEntity
  8
0
 62
     1
100
AcDbText
 10
32.78807
 20
32.33188
 30
0.0
 40
0.126316
  1
4.375
  7
Arial
100
AcDbText
  0
LINE
  5
92
330
18
100
AcDbEntity
  8
0
 62
     1
100
AcDbLine
 10
30.310684
 20
32.333641
 30
0.0
 11
30.310684
 21
32.521344
 31
0.0
  0
LINE
  5
93
330
18
100
AcDbEntity
  8
0
 62
     1
100
AcDbLine
 10
34.685684
 20
29.864891
 30
0.0
 11
34.685684
 21
32.521344
 31
0.0
  0
SOLID
  5
94
330
18
100
AcDbEntity
  8
0
 62
     1
100
AcDbTrace
 10
32.558133
 20
28.269937
 30
0.0
 11
32.558133
 21
28.208324
 31
0.0
 12
32.373184
 22
28.23913
 32
0.0
 13
32.373184
 23
28.23913
 33
0.0
  0
SOLID
  5
95
330
18
100
AcDbEntity
  8
0
 62
     1
100
AcDbTrace
 10
34.500735
 20
28.208324
 30
0.0
 11
34.500735
 21
28.269937
 31
0.0
 12
34.685684
 22
28.23913
 32
0.0
 13
34.685684
 23
28.23913
 33
0.0
  0
LINE
  5
96
330
18
100
AcDbEntity
  8
0
 62
     1
100
AcDbLine
 10
32.373184
 20
28.23913
 30
0.0
 11
33.358605
 21
28.23913
 31
0.0
  0
LINE
  5
97
330
18
100
AcDbEntity
  8
0
 62
     1
100
AcDbLine
 10
34.014419
 20
28.23913
 30
0.0
 11
34.685684
 21
28.23913
 31
0.0
  0
TEXT
  5
98
330
18
100
AcDbEntity
  8
0
 62
     1
100
AcDbText
 10
33.421105
 20
28.174666
 30
0.0
 40
0.126316
  1
2.3125
  7
Arial
100
AcDbText
  0
LINE
  5
99
330
18
100
AcDbEntity
  8
0
 62
     1
100
AcDbLine
 10
32.373184
 20
28.11413
 30
0.0
 11
32.373184
 21
28.396141
 31
0.0
  0
LINE
  5
9A
330
18
100
AcDbEntity
  8
0
 62
     1
100
AcDbLine
 10
34.685684
 20
28.11413
 30
0.0
 11
34.685684
 21
29.739891
 31
0.0
  0
SOLID
  5
9B
330
18
100
AcDbEntity
  8
0
 62
     1
100
AcDbTrace
 10
33.342338
 20
29.617442
 30
0.0
 11
33.280652
 21
29.617442
 31
0.0
 12
33.311495
 22
29.802391
 32
0.0
 13
33.311495
 23
29.802391
 33
0.0
  0
SOLID
  5
9C
330
18
100
AcDbEntity
  8
0
 62
     1
100
AcDbTrace
 10
33.280652
 20
28.64359
 30
0.0
 11
33.342338
 21
28.64359
 31
0.0
 12
33.311495
 22
28.458641
 32
0.0
 13
33.311495
 23
28.458641
 33
0.0
  0
LINE
  5
9D
330
18
100
AcDbEntity
  8
0
 62
     1
100
AcDbLine
 10
33.311495
 20
29.303303
 30
0.0
 11
33.311495
 21
29.802391
 31
0.0
  0
LINE
  5
9E
330
18
100
AcDbEntity
  8
0
 62
     1
100
AcDbLine
 10
33.311495
 20
28.458641
 30
0.0
 11
33.311495
 21
29.011636
 31
0.0
  0
TEXT
  5
9F
330
18
100
AcDbEntity
  8
0
 62
     1
100
AcDbText
 10
33.003792
 20
29.093006
 30
0.0
 40
0.126316
  1
1.34375
  7
Arial
100
AcDbText
  0
LINE
  5
A0
330
18
100
AcDbEntity
  8
0
 62
     1
100
AcDbLine
 10
33.186495
 20
28.458641
 30
0.0
 11
33.349353
 21
28.458641
 31
0.0
  0
LINE
  5
A1
330
18
100
AcDbEntity
  8
0
 62
     1
100
AcDbLine
 10
33.186495
 20
29.802391
 30
0.0
 11
34.623184
 21
29.802391
 31
0.0
  0
SOLID
  5
A2
330
18
100
AcDbEntity
  8
0
 62
     1
100
AcDbTrace
 10
25.370633
 20
28.003323
 30
0.0
 11
25.370633
 21
27.941709
 31
0.0
 12
25.185684
 22
27.972516
 32
0.0
 13
25.185684
 23
27.972516
 33
0.0
  0
SOLID
  5
A3
330
18
100
AcDbEntity
  8
0
 62
     1
100
AcDbTrace
 10
34.500735
 20
27.941709
 30
0.0
 11
34.500735
 21
28.003323
 31
0.0
 12
34.685684
 22
27.972516
 32
0.0
 13
34.685684
 23
27.972516
 33
0.0
  0
LINE
  5
A4
330
18
100
AcDbEntity
  8
0
 62
     1
100
AcDbLine
 10
25.185684
 20
27.972516
 30
0.0
 11
29.313932
 21
27.972516
 31
0.0
  0
LINE
  5
A5
330
18
100
AcDbEntity
  8
0
 62
     1
100
AcDbLine
 10
29.710024
 20
27.972516
 30
0.0
 11
34.685684
 21
27.972516
 31
0.0
  0
TEXT
  5
A6
330
18
100
AcDbEntity
  8
0
 62
     1
100
AcDbText
 10
29.376432
 20
27.897308
 30
0.0
 40
0.147368
  1
9.5
  7
Arial
100
AcDbText
  0
LINE
  5
A7
330
18
100
AcDbEntity
  8
0
 62
     1
100
AcDbLine
 10
25.185684
 20
27.847516
 30
0.0
 11
25.185684
 21
28.314875
 31
0.0
  0
LINE
  5
A8
330
18
100
AcDbEntity
  8
0
 62
     1
100
AcDbLine
 10
34.685684
 20
27.847516
 30
0.0
 11
34.685684
 21
29.739891
 31
0.0
  0
ENDSEC
  0
SECTION
  2
OBJECTS
  0
DICTIONARY
  5
C
330
0
100
AcDbDictionary
281
     1
  3
ACAD_DETAILVIEWSTYLE
350
120
  3
ACAD_GROUP
350
D
  3
ACAD_LAYOUT
350
CB
  3
ACAD_MATERIAL
350
E7
  3
ACAD_MLEADERSTYLE
350
11E
  3
ACAD_MLINESTYLE
350
1B
  3
ACAD_SCALELIST
350
A9
  3
ACAD_SECTIONVIEWSTYLE
350
121
  3
ACAD_TABLESTYLE
350
11D
  3
ACAD_VISUALSTYLE
350
CE
  3
AcDbVariableDictionary
350
EB
  0
DICTIONARY
  5
120
102
{ACAD_REACTORS
330
C
102
}
330
C
100
AcDbDictionary
281
     1
  0
DICTIONARY
  5
D
102
{ACAD_REACTORS
330
C
102
}
330
C
100
AcDbDictionary
281
     1
  0
DICTIONARY
  5
CB
102
{ACAD_REACTORS
330
C
102
}
330
C
100
AcDbDictionary
281
     1
  3
Layout1
350
CD
  3
Model
350
CC
  0
DICTIONARY
  5
E7
102
{ACAD_REACTORS
330
C
102
}
330
C
100
AcDbDictionary
281
     1
  3
ByBlock
350
E9
  3
ByLayer
350
E8
  3
Global
350
EA
  0
DICTIONARY
  5
11E
102
{ACAD_REACTORS
330
C
102
}
330
C
100
AcDbDictionary
281
     1
  0
DICTIONARY
  5
1B
102
{ACAD_REACTORS
330
C
102
}
330
C
100
AcDbDictionary
281
     1
  3
STANDARD
350
1C
  0
DICTIONARY
  5
A9
102
{ACAD_REACTORS
330
C
102
}
330
C
100
AcDbDictionary
281
     1
  3
A0
350
AA
  3
A1
350
AB
  3
A2
350
AC
  3
A3
350
AD
  3
A4
350
AE
  3
A5
350
AF
  3
A6
350
B0
  3
A7
350
B1
  3
A8
350
B2
  3
A9
350
B3
  3
B0
350
B4
  3
B1
350
B5
  3
B2
350
B6
  3
B3
350
B7
  3
B4
350
B8
  3
B5
350
B9
  3
B6
350
BA
  3
B7
350
BB
  3
B8
350
BC
  3
B9
350
BD
  3
C0
350
BE
  3
C1
350
BF
  3
C2
350
C0
  3
C3
350
C1
  3
C4
350
C2
  3
C5
350
C3
  3
C6
350
C4
  3
C7
350
C5
  3
C8
350
C6
  3
C9
350
C7
  3
D0
350
C8
  3
D1
350
C9
  3
D2
350
CA
  0
DICTIONARY
  5
121
102
{ACAD_REACTORS
330
C
102
}
330
C
100
AcDbDictionary
281
     1
  0
DICTIONARY
  5
11D
102
{ACAD_REACTORS
330
C
102
}
330
C
100
AcDbDictionary
281
     1
  0
DICTIONARY
  5
CE
102
{ACAD_REACTORS
330
C
102
}
330
C
100
AcDbDictionary
281
     1
  3
2dWireframe
350
D3
  3
Basic
350
D6
  3
Brighten
350
DA
  3
ColorChange
350
DE
  3
Conceptual
350
D8
  3
Dim
350
D9
  3
EdgeColorOff
350
E1
  3
Facepattern
350
DD
  3
Flat
350
CF
  3
FlatWithEdges
350
D0
  3
Gouraud
350
D1
  3
GouraudWithEdges
350
D2
  3
Hidden
350
D5
  3
JitterOff
350
DF
  3
Linepattern
350
DC
  3
OverhangOff
350
E0
  3
Realistic
350
D7
  3
Shaded
350
E6
  3
Shaded with edges
350
E5
  3
Shades of Gray
350
E2
  3
Sketchy
350
E3
  3
Thicken
350
DB
  3
Wireframe
350
D4
  3
X-Ray
350
E4
  0
DICTIONARY
  5
EB
102
{ACAD_REACTORS
330
C
102
}
330
C
100
AcDbDictionary
281
     1
  3
CANNOSCALE
350
EC
  3
MSLTSCALE
350
11F
  0
LAYOUT
  5
CD
102
{ACAD_REACTORS
330
CB
102
}
330
CB
100
AcDbPlotSettings
  1

  2
none_device
  4

  6

 40
0.0
 41
0.0
 42
0.0
 43
0.0
 44
0.0
 45
0.0
 46
0.0
 47
0.0
 48
0.0
 49
0.0
140
0.0
141
0.0
142
1.0
143
1.0
 70
   688
 72
     0
 73
     0
 74
     5
  7

 75
    16
 76
     0
 77
     2
 78
   300
147
1.0
148
0.0
149
0.0
100
AcDbLayout
  1
Layout1
 70
     1
 71
     1
 10
0.0
 20
0.0
 11
12.0
 21
9.0
 12
0.0
 22
0.0
 32
0.0
 14
1.000000000000000E+20
 24
1.000000000000000E+20
 34
1.000000000000000E+20
 15
-1.000000000000000E+20
 25
-1.000000000000000E+20
 35
-1.000000000000000E+20
146
0.0
 13
0.0
 23
0.0
 33
0.0
 16
1.0
 26
0.0
 36
0.0
 17
0.0
 27
1.0
 37
0.0
 76
     0
330
15
  0
LAYOUT
  5
CC
102
{ACAD_REACTORS
330
CB
102
}
330
CB
100
AcDbPlotSettings
  1

  2
none_device
  4
Letter_(8.50_x_11.00_Inches)
  6

 40
6.35
 41
6.35
 42
6.35000508
 43
6.35000508
 44
215.9
 45
279.4
 46
0.0
 47
0.0
 48
0.0
 49
0.0
140
0.0
141
0.0
142
1.0
143
1.506286908116173
 70
  1712
 72
     0
 73
     0
 74
     0
  7

 75
     0
 76
     0
 77
     2
 78
   300
147
0.6638841475762696
148
-310.8536967613655
149
-467.7828337999999
100
AcDbLayout
  1
Model
 70
     1
 71
     0
 10
0.0
 20
0.0
 11
35.88606
 21
34.615162
 12
0.0
 22
0.0
 32
0.0
 14
23.191328
 24
27.845016
 34
0.0
 15
35.88606
 25
34.615162
 35
0.0
146
0.0
 13
0.0
 23
0.0
 33
0.0
 16
1.0
 26
0.0
 36
0.0
 17
0.0
 27
1.0
 37
0.0
 76
     0
330
18
331
1E
  0
MATERIAL
  5
E9
102
{ACAD_REACTORS
330
E7
102
}
330
E7
100
AcDbMaterial
  1
ByBlock
 72
     1
 94
      127
  0
MATERIAL
  5
E8
102
{ACAD_REACTORS
330
E7
102
}
330
E7
100
AcDbMaterial
  1
ByLayer
 72
     1
 94
      127
  0
MATERIAL
  5
EA
102
{ACAD_REACTORS
330
E7
102
}
330
E7
100
AcDbMaterial
  1
Global
 72
     1
 94
      127
  0
MLINESTYLE
  5
1C
102
{ACAD_REACTORS
330
1B
102
}
330
1B
100
AcDbMlineStyle
  2
STANDARD
 70
     0
  3

 62
   256
 51
90.0
 52
90.0
 71
     2
 49
0.5
 62
   256
  6
BYLAYER
 49
-0.5
 62
   256
  6
BYLAYER
  0
SCALE
  5
AA
102
{ACAD_REACTORS
330
A9
102
}
330
A9
100
AcDbScale
 70
     0
300
1:1
140
1.0
141
1.0
290
     1
  0
SCALE
  5
AB
102
{ACAD_REACTORS
330
A9
102
}
330
A9
100
AcDbScale
 70
     0
300
1:2
140
1.0
141
2.0
290
     0
  0
SCALE
  5
AC
102
{ACAD_REACTORS
330
A9
102
}
330
A9
100
AcDbScale
 70
     0
300
1:4
140
1.0
141
4.0
290
     0
  0
SCALE
  5
AD
102
{ACAD_REACTORS
330
A9
102
}
330
A9
100
AcDbScale
 70
     0
300
1:5
140
1.0
141
5.0
290
     0
  0
SCALE
  5
AE
102
{ACAD_REACTORS
330
A9
102
}
330
A9
100
AcDbScale
 70
     0
300
1:8
140
1.0
141
8.0
290
     0
  0
SCALE
  5
AF
102
{ACAD_REACTORS
330
A9
102
}
330
A9
100
AcDbScale
 70
     0
300
1:10
140
1.0
141
10.0
290
     0
  0
SCALE
  5
B0
102
{ACAD_REACTORS
330
A9
102
}
330
A9
100
AcDbScale
 70
     0
300
1:16
140
1.0
141
16.0
290
     0
  0
SCALE
  5
B1
102
{ACAD_REACTORS
330
A9
102
}
330
A9
100
AcDbScale
 70
     0
300
1:20
140
1.0
141
20.0
290
     0
  0
SCALE
  5
B2
102
{ACAD_REACTORS
330
A9
102
}
330
A9
100
AcDbScale
 70
     0
300
1:30
140
1.0
141
30.0
290
     0
  0
SCALE
  5
B3
102
{ACAD_REACTORS
330
A9
102
}
330
A9
100
AcDbScale
 70
     0
300
1:40
140
1.0
141
40.0
290
     0
  0
SCALE
  5
B4
102
{ACAD_REACTORS
330
A9
102
}
330
A9
100
AcDbScale
 70
     0
300
1:50
140
1.0
141
50.0
290
     0
  0
SCALE
  5
B5
102
{ACAD_REACTORS
330
A9
102
}
330
A9
100
AcDbScale
 70
     0
300
1:100
140
1.0
141
100.0
290
     0
  0
SCALE
  5
B6
102
{ACAD_REACTORS
330
A9
102
}
330
A9
100
AcDbScale
 70
     0
300
2:1
140
2.0
141
1.0
290
     0
  0
SCALE
  5
B7
102
{ACAD_REACTORS
330
A9
102
}
330
A9
100
AcDbScale
 70
     0
300
4:1
140
4.0
141
1.0
290
     0
  0
SCALE
  5
B8
102
{ACAD_REACTORS
330
A9
102
}
330
A9
100
AcDbScale
 70
     0
300
8:1
140
8.0
141
1.0
290
     0
  0
SCALE
  5
B9
102
{ACAD_REACTORS
330
A9
102
}
330
A9
100
AcDbScale
 70
     0
300
10:1
140
10.0
141
1.0
290
     0
  0
SCALE
  5
BA
102
{ACAD_REACTORS
330
A9
102
}
330
A9
100
AcDbScale
 70
     0
300
100:1
140
100.0
141
1.0
290
     0
  0
SCALE
  5
BB
102
{ACAD_REACTORS
330
A9
102
}
330
A9
100
AcDbScale
 70
     0
300
1/128" = 1'-0"
140
0.0078125
141
12.0
290
     0
  0
SCALE
  5
BC
102
{ACAD_REACTORS
330
A9
102
}
330
A9
100
AcDbScale
 70
     0
300
1/64" = 1'-0"
140
0.015625
141
12.0
290
     0
  0
SCALE
  5
BD
102
{ACAD_REACTORS
330
A9
102
}
330
A9
100
AcDbScale
 70
     0
300
1/32" = 1'-0"
140
0.03125
141
12.0
290
     0
  0
SCALE
  5
BE
102
{ACAD_REACTORS
330
A9
102
}
330
A9
100
AcDbScale
 70
     0
300
1/16" = 1'-0"
140
0.0625
141
12.0
290
     0
  0
SCALE
  5
BF
102
{ACAD_REACTORS
330
A9
102
}
330
A9
100
AcDbScale
 70
     0
300
3/32" = 1'-0"
140
0.09375
141
12.0
290
     0
  0
SCALE
  5
C0
102
{ACAD_REACTORS
330
A9
102
}
330
A9
100
AcDbScale
 70
     0
300
1/8" = 1'-0"
140
0.125
141
12.0
290
     0
  0
SCALE
  5
C1
102
{ACAD_REACTORS
330
A9
102
}
330
A9
100
AcDbScale
 70
     0
300
3/16" = 1'-0"
140
0.1875
141
12.0
290
     0
  0
SCALE
  5
C2
102
{ACAD_REACTORS
330
A9
102
}
330
A9
100
AcDbScale
 70
     0
300
1/4" = 1'-0"
140
0.25
141
12.0
290
     0
  0
SCALE
  5
C3
102
{ACAD_REACTORS
330
A9
102
}
330
A9
100
AcDbScale
 70
     0
300
3/8" = 1'-0"
140
0.375
141
12.0
290
     0
  0
SCALE
  5
C4
102
{ACAD_REACTORS
330
A9
102
}
330
A9
100
AcDbScale
 70
     0
300
1/2" = 1'-0"
140
0.5
141
12.0
290
     0
  0
SCALE
  5
C5
102
{ACAD_REACTORS
330
A9
102
}
330
A9
100
AcDbScale
 70
     0
300
3/4" = 1'-0"
140
0.75
141
12.0
290
     0
  0
SCALE
  5
C6
102
{ACAD_REACTORS
330
A9
102
}
330
A9
100
AcDbScale
 70
     0
300
1" = 1'-0"
140
1.0
141
12.0
290
     0
  0
SCALE
  5
C7
102
{ACAD_REACTORS
330
A9
102
}
330
A9
100
AcDbScale
 70
     0
300
1-1/2" = 1'-0"
140
1.5
141
12.0
290
     0
  0
SCALE
  5
C8
102
{ACAD_REACTORS
330
A9
102
}
330
A9
100
AcDbScale
 70
     0
300
3" = 1'-0"
140
3.0
141
12.0
290
     0
  0
SCALE
  5
C9
102
{ACAD_REACTORS
330
A9
102
}
330
A9
100
AcDbScale
 70
     0
300
6" = 1'-0"
140
6.0
141
12.0
290
     0
  0
SCALE
  5
CA
102
{ACAD_REACTORS
330
A9
102
}
330
A9
100
AcDbScale
 70
     0
300
1'-0" = 1'-0"
140
12.0
141
12.0
290
     0
  0
VISUALSTYLE
  5
D3
102
{ACAD_REACTORS
330
CE
102
}
102
{ACAD_XDICTIONARY
360
F5
102
}
330
CE
100
AcDbVisualStyle
  2
2dWireframe
 70
     4
177
     2
291
     0
 71
     0
176
     1
 72
     2
176
     1
 73
     0
176
     1
 90
        0
176
     1
 40
0.6
176
     1
 41
30.0
176
     1
 62
     5
 63
     7
421
 16777215
176
     1
 74
     1
176
     1
 91
        4
176
     1
 64
     7
176
     1
 65
   257
176
     1
 75
     1
176
     1
175
     1
176
     1
 42
1.0
176
     1
 92
        0
176
     1
 66
   257
176
     1
 43
1.0
176
     1
 76
     1
176
     1
 77
     6
176
     1
 78
     2
176
     1
 67
     7
176
     1
 79
     5
176
     1
170
     0
176
     1
171
     0
176
     1
290
     0
176
     1
 93
        1
176
     1
 44
0.0
176
     1
173
     0
176
     1
  0
VISUALSTYLE
  5
D6
102
{ACAD_REACTORS
330
CE
102
}
102
{ACAD_XDICTIONARY
360
FB
102
}
330
CE
100
AcDbVisualStyle
  2
Basic
 70
     7
177
     2
291
     1
 71
     1
176
     1
 72
     0
176
     1
 73
     1
176
     1
 90
        0
176
     1
 40
0.6
176
     1
 41
30.0
176
     1
 62
     5
 63
     7
421
 16777215
176
     1
 74
     0
176
     1
 91
        4
176
     1
 64
     7
176
     1
 65
   257
176
     1
 75
     1
176
     1
175
     1
176
     1
 42
1.0
176
     1
 92
        8
176
     1
 66
     7
176
     1
 43
1.0
176
     1
 76
     1
176
     1
 77
     6
176
     1
 78
     2
176
     1
 67
     7
176
     1
 79
     5
176
     1
170
     0
176
     1
171
     0
176
     1
290
     0
176
     1
 93
        1
176
     1
 44
0.0
176
     1
173
     0
176
     1
  0
VISUALSTYLE
  5
DA
102
{ACAD_REACTORS
330
CE
102
}
102
{ACAD_XDICTIONARY
360
103
102
}
330
CE
100
AcDbVisualStyle
  2
Brighten
 70
    12
177
     2
291
     1
 71
     2
176
     1
 72
     2
176
     1
 73
     0
176
     1
 90
        0
176
     1
 40
0.6
176
     1
 41
30.0
176
     1
 62
     5
 63
     7
421
 16777215
176
     1
 74
     1
176
     1
 91
        4
176
     1
 64
     7
176
     1
 65
   257
176
     1
 75
     1
176
     1
175
     1
176
     1
 42
1.0
176
     1
 92
        8
176
     1
 66
     7
176
     1
 43
1.0
176
     1
 76
     1
176
     1
 77
     6
176
     1
 78
     2
176
     1
 67
     7
176
     1
 79
     5
176
     1
170
     0
176
     1
171
     0
176
     1
290
     0
176
     1
 93
        1
176
     1
 44
50.0
176
     1
173
     0
176
     1
  0
VISUALSTYLE
  5
DE
102
{ACAD_REACTORS
330
CE
102
}
102
{ACAD_XDICTIONARY
360
10B
102
}
330
CE
100
AcDbVisualStyle
  2
ColorChange
 70
    16
177
     2
291
     1
 71
     2
176
     1
 72
     2
176
     1
 73
     3
176
     1
 90
        0
176
     1
 40
0.6
176
     1
 41
30.0
176
     1
 62
     5
 63
     8
421
  8421504
176
     1
 74
     1
176
     1
 91
        4
176
     1
 64
     7
176
     1
 65
   257
176
     1
 75
     1
176
     1
175
     1
176
     1
 42
1.0
176
     1
 92
        8
176
     1
 66
     8
424
  8421504
176
     1
 43
1.0
176
     1
 76
     1
176
     1
 77
     6
176
     1
 78
     2
176
     1
 67
     7
176
     1
 79
     5
176
     1
170
     0
176
     1
171
     0
176
     1
290
     0
176
     1
 93
        1
176
     1
 44
0.0
176
     1
173
     0
176
     1
  0
VISUALSTYLE
  5
D8
102
{ACAD_REACTORS
330
CE
102
}
102
{ACAD_XDICTIONARY
360
FF
102
}
330
CE
100
AcDbVisualStyle
  2
Conceptual
 70
     9
177
     2
291
     0
 71
     3
176
     1
 72
     2
176
     1
 73
     0
176
     1
 90
        0
176
     1
 40
0.6
176
     1
 41
30.0
176
     1
 62
     5
 63
     7
421
 16777215
176
     1
 74
     2
176
     1
 91
        2
176
     1
 64
     7
176
     1
 65
   257
176
     1
 75
     1
176
     1
175
     1
176
     1
 42
179.0
176
     1
 92
        8
176
     1
 66
     7
176
     1
 43
1.0
176
     1
 76
     1
176
     1
 77
     6
176
     1
 78
     2
176
     1
 67
     7
176
     1
 79
     3
176
     1
170
     0
176
     1
171
     0
176
     1
290
     0
176
     1
 93
        1
176
     1
 44
0.0
176
     1
173
     0
176
     1
  0
VISUALSTYLE
  5
D9
102
{ACAD_REACTORS
330
CE
102
}
102
{ACAD_XDICTIONARY
360
101
102
}
330
CE
100
AcDbVisualStyle
  2
Dim
 70
    11
177
     2
291
     1
 71
     2
176
     1
 72
     2
176
     1
 73
     0
176
     1
 90
        0
176
     1
 40
0.6
176
     1
 41
30.0
176
     1
 62
     5
 63
     7
421
 16777215
176
     1
 74
     1
176
     1
 91
        4
176
     1
 64
     7
176
     1
 65
   257
176
     1
 75
     1
176
     1
175
     1
176
     1
 42
1.0
176
     1
 92
        8
176
     1
 66
     7
176
     1
 43
1.0
176
     1
 76
     1
176
     1
 77
     6
176
     1
 78
     2
176
     1
 67
     7
176
     1
 79
     5
176
     1
170
     0
176
     1
171
     0
176
     1
290
     0
176
     1
 93
        1
176
     1
 44
-50.0
176
     1
173
     0
176
     1
  0
VISUALSTYLE
  5
E1
102
{ACAD_REACTORS
330
CE
102
}
102
{ACAD_XDICTIONARY
360
111
102
}
330
CE
100
AcDbVisualStyle
  2
EdgeColorOff
 70
    22
177
     2
291
     1
 71
     2
176
     0
 72
     2
176
     0
 73
     0
176
     0
 90
        0
176
     0
 40
0.6
176
     0
 41
30.0
176
     0
 62
     5
 63
     7
421
 16777215
176
     0
 74
     1
176
     0
 91
        4
176
     0
 64
     7
176
     0
 65
   257
176
     0
 75
     1
176
     0
175
     1
176
     0
 42
1.0
176
     0
 92
        8
176
     2
 66
     7
176
     0
 43
1.0
176
     0
 76
     1
176
     0
 77
     6
176
     0
 78
     2
176
     0
 67
     7
176
     0
 79
     5
176
     0
170
     0
176
     0
171
     0
176
     0
290
     0
176
     0
 93
        1
176
     0
 44
0.0
176
     0
173
     0
176
     0
  0
VISUALSTYLE
  5
DD
102
{ACAD_REACTORS
330
CE
102
}
102
{ACAD_XDICTIONARY
360
109
102
}
330
CE
100
AcDbVisualStyle
  2
Facepattern
 70
    15
177
     2
291
     1
 71
     2
176
     1
 72
     2
176
     1
 73
     0
176
     1
 90
        0
176
     1
 40
0.6
176
     1
 41
30.0
176
     1
 62
     5
 63
     7
421
 16777215
176
     1
 74
     1
176
     1
 91
        4
176
     1
 64
     7
176
     1
 65
   257
176
     1
 75
     1
176
     1
175
     1
176
     1
 42
1.0
176
     1
 92
        8
176
     1
 66
     7
176
     1
 43
1.0
176
     1
 76
     1
176
     1
 77
     6
176
     1
 78
     2
176
     1
 67
     7
176
     1
 79
     5
176
     1
170
     0
176
     1
171
     0
176
     1
290
     0
176
     1
 93
        1
176
     1
 44
0.0
176
     1
173
     0
176
     1
  0
VISUALSTYLE
  5
CF
102
{ACAD_REACTORS
330
CE
102
}
102
{ACAD_XDICTIONARY
360
ED
102
}
330
CE
100
AcDbVisualStyle
  2
Flat
 70
     0
177
     2
291
     1
 71
     2
176
     1
 72
     1
176
     1
 73
     1
176
     1
 90
        2
176
     1
 40
0.6
176
     1
 41
30.0
176
     1
 62
     5
 63
     7
421
 16777215
176
     1
 74
     0
176
     1
 91
        0
176
     1
 64
     7
176
     1
 65
   257
176
     1
 75
     1
176
     1
175
     1
176
     1
 42
1.0
176
     1
 92
        8
176
     1
 66
     7
176
     1
 43
1.0
176
     1
 76
     1
176
     1
 77
     6
176
     1
 78
     2
176
     1
 67
     7
176
     1
 79
     5
176
     1
170
     0
176
     1
171
     0
176
     1
290
     0
176
     1
 93
       13
176
     1
 44
0.0
176
     1
173
     0
176
     1
  0
VISUALSTYLE
  5
D0
102
{ACAD_REACTORS
330
CE
102
}
102
{ACAD_XDICTIONARY
360
EF
102
}
330
CE
100
AcDbVisualStyle
  2
FlatWithEdges
 70
     1
177
     2
291
     1
 71
     2
176
     1
 72
     1
176
     1
 73
     1
176
     1
 90
        2
176
     1
 40
0.6
176
     1
 41
30.0
176
     1
 62
     5
 63
     7
421
 16777215
176
     1
 74
     1
176
     1
 91
        0
176
     1
 64
     7
176
     1
 65
   257
176
     1
 75
     1
176
     1
175
     1
176
     1
 42
1.0
176
     1
 92
        0
176
     1
 66
   257
176
     1
 43
1.0
176
     1
 76
     1
176
     1
 77
     6
176
     1
 78
     2
176
     1
 67
     7
176
     1
 79
     5
176
     1
170
     0
176
     1
171
     0
176
     1
290
     0
176
     1
 93
       13
176
     1
 44
0.0
176
     1
173
     0
176
     1
  0
VISUALSTYLE
  5
D1
102
{ACAD_REACTORS
330
CE
102
}
102
{ACAD_XDICTIONARY
360
F1
102
}
330
CE
100
AcDbVisualStyle
  2
Gouraud
 70
     2
177
     2
291
     1
 71
     2
176
     1
 72
     2
176
     1
 73
     1
176
     1
 90
        2
176
     1
 40
0.6
176
     1
 41
30.0
176
     1
 62
     5
 63
     7
421
 16777215
176
     1
 74
     0
176
     1
 91
        0
176
     1
 64
     7
176
     1
 65
   257
176
     1
 75
     1
176
     1
175
     1
176
     1
 42
1.0
176
     1
 92
        0
176
     1
 66
     7
176
     1
 43
1.0
176
     1
 76
     1
176
     1
 77
     6
176
     1
 78
     2
176
     1
 67
     7
176
     1
 79
     5
176
     1
170
     0
176
     1
171
     0
176
     1
290
     0
176
     1
 93
       13
176
     1
 44
0.0
176
     1
173
     0
176
     1
  0
VISUALSTYLE
  5
D2
102
{ACAD_REACTORS
330
CE
102
}
102
{ACAD_XDICTIONARY
360
F3
102
}
330
CE
100
AcDbVisualStyle
  2
GouraudWithEdges
 70
     3
177
     2
291
     1
 71
     2
176
     1
 72
     2
176
     1
 73
     1
176
     1
 90
        2
176
     1
 40
0.6
176
     1
 41
30.0
176
     1
 62
     5
 63
     7
421
 16777215
176
     1
 74
     1
176
     1
 91
        0
176
     1
 64
     7
176
     1
 65
   257
176
     1
 75
     1
176
     1
175
     1
176
     1
 42
1.0
176
     1
 92
        0
176
     1
 66
   257
176
     1
 43
1.0
176
     1
 76
     1
176
     1
 77
     6
176
     1
 78
     2
176
     1
 67
     7
176
     1
 79
     5
176
     1
170
     0
176
     1
171
     0
176
     1
290
     0
176
     1
 93
       13
176
     1
 44
0.0
176
     1
173
     0
176
     1
  0
VISUALSTYLE
  5
D5
102
{ACAD_REACTORS
330
CE
102
}
102
{ACAD_XDICTIONARY
360
F9
102
}
330
CE
100
AcDbVisualStyle
  2
Hidden
 70
     6
177
     2
291
     0
 71
     1
176
     1
 72
     2
176
     1
 73
     2
176
     1
 90
        0
176
     1
 40
0.6
176
     1
 41
30.0
176
     1
 62
     5
 63
     7
421
 16777215
176
     1
 74
     2
176
     1
 91
        2
176
     1
 64
     7
176
     1
 65
   257
176
     1
 75
     2
176
     1
175
     1
176
     1
 42
40.0
176
     1
 92
        0
176
     1
 66
   257
176
     1
 43
1.0
176
     1
 76
     1
176
     1
 77
     6
176
     1
 78
     2
176
     1
 67
     7
176
     1
 79
     3
176
     1
170
     0
176
     1
171
     0
176
     1
290
     0
176
     1
 93
        1
176
     1
 44
0.0
176
     1
173
     0
176
     1
  0
VISUALSTYLE
  5
DF
102
{ACAD_REACTORS
330
CE
102
}
102
{ACAD_XDICTIONARY
360
10D
102
}
330
CE
100
AcDbVisualStyle
  2
JitterOff
 70
    20
177
     2
291
     1
 71
     2
176
     0
 72
     2
176
     0
 73
     0
176
     0
 90
        0
176
     0
 40
0.6
176
     0
 41
30.0
176
     0
 62
     5
 63
     7
421
 16777215
176
     0
 74
     1
176
     0
 91
        4
176
     0
 64
     7
176
     0
 65
   257
176
     0
 75
     1
176
     0
175
     1
176
     0
 42
1.0
176
     0
 92
       10
176
     2
 66
     7
176
     0
 43
1.0
176
     0
 76
     1
176
     0
 77
     6
176
     0
 78
     2
176
     0
 67
     7
176
     0
 79
     5
176
     0
170
     0
176
     0
171
     0
176
     0
290
     0
176
     0
 93
        1
176
     0
 44
0.0
176
     0
173
     0
176
     0
  0
VISUALSTYLE
  5
DC
102
{ACAD_REACTORS
330
CE
102
}
102
{ACAD_XDICTIONARY
360
107
102
}
330
CE
100
AcDbVisualStyle
  2
Linepattern
 70
    14
177
     2
291
     1
 71
     2
176
     1
 72
     2
176
     1
 73
     0
176
     1
 90
        0
176
     1
 40
0.6
176
     1
 41
30.0
176
     1
 62
     5
 63
     7
421
 16777215
176
     1
 74
     1
176
     1
 91
        4
176
     1
 64
     7
176
     1
 65
   257
176
     1
 75
     7
176
     1
175
     7
176
     1
 42
1.0
176
     1
 92
        8
176
     1
 66
     7
176
     1
 43
1.0
176
     1
 76
     1
176
     1
 77
     6
176
     1
 78
     2
176
     1
 67
     7
176
     1
 79
     5
176
     1
170
     0
176
     1
171
     0
176
     1
290
     0
176
     1
 93
        1
176
     1
 44
0.0
176
     1
173
     0
176
     1
  0
VISUALSTYLE
  5
E0
102
{ACAD_REACTORS
330
CE
102
}
102
{ACAD_XDICTIONARY
360
10F
102
}
330
CE
100
AcDbVisualStyle
  2
OverhangOff
 70
    21
177
     2
291
     1
 71
     2
176
     0
 72
     2
176
     0
 73
     0
176
     0
 90
        0
176
     0
 40
0.6
176
     0
 41
30.0
176
     0
 62
     5
 63
     7
421
 16777215
176
     0
 74
     1
176
     0
 91
        4
176
     0
 64
     7
176
     0
 65
   257
176
     0
 75
     1
176
     0
175
     1
176
     0
 42
1.0
176
     0
 92
        9
176
     2
 66
     7
176
     0
 43
1.0
176
     0
 76
     1
176
     0
 77
     6
176
     0
 78
     2
176
     0
 67
     7
176
     0
 79
     5
176
     0
170
     0
176
     0
171
     0
176
     0
290
     0
176
     0
 93
        1
176
     0
 44
0.0
176
     0
173
     0
176
     0
  0
VISUALSTYLE
  5
D7
102
{ACAD_REACTORS
330
CE
102
}
102
{ACAD_XDICTIONARY
360
FD
102
}
330
CE
100
AcDbVisualStyle
  2
Realistic
 70
     8
177
     2
291
     0
 71
     2
176
     1
 72
     3
176
     1
 73
     0
176
     1
 90
        2
176
     1
 40
0.6
176
     1
 41
30.0
176
     1
 62
     5
 63
     7
421
 16777215
176
     1
 74
     0
176
     1
 91
        0
176
     1
 64
     7
176
     1
 65
   257
176
     1
 75
     1
176
     1
175
     1
176
     1
 42
1.0
176
     1
 92
        8
176
     1
 66
   257
176
     1
 43
1.0
176
     1
 76
     1
176
     1
 77
     6
176
     1
 78
     2
176
     1
 67
     7
176
     1
 79
     3
176
     1
170
     0
176
     1
171
     0
176
     1
290
     0
176
     1
 93
       13
176
     1
 44
0.0
176
     1
173
     0
176
     1
  0
VISUALSTYLE
  5
E6
102
{ACAD_REACTORS
330
CE
102
}
102
{ACAD_XDICTIONARY
360
11B
102
}
330
CE
100
AcDbVisualStyle
  2
Shaded
 70
    27
177
     2
291
     0
 71
     2
176
     1
 72
     2
176
     1
 73
     1
176
     1
 90
        2
176
     1
 40
0.6
176
     1
 41
30.0
176
     1
 62
     5
 63
     7
421
 16777215
176
     1
 74
     0
176
     1
 91
        4
176
     1
 64
     7
176
     1
 65
   257
176
     1
 75
     1
176
     1
175
     1
176
     1
 42
1.0
176
     1
 92
        8
176
     1
 66
   257
176
     1
 43
1.0
176
     1
 76
     1
176
     1
 77
     6
176
     1
 78
     2
176
     1
 67
     8
425
  7895160
176
     1
 79
     3
176
     1
170
     0
176
     1
171
     0
176
     1
290
     0
176
     1
 93
        5
176
     1
 44
0.0
176
     1
173
     0
176
     1
  0
VISUALSTYLE
  5
E5
102
{ACAD_REACTORS
330
CE
102
}
102
{ACAD_XDICTIONARY
360
119
102
}
330
CE
100
AcDbVisualStyle
  2
Shaded with edges
 70
    26
177
     2
291
     0
 71
     2
176
     1
 72
     2
176
     1
 73
     1
176
     1
 90
        2
176
     1
 40
0.6
176
     1
 41
30.0
176
     1
 62
     5
 63
     7
421
 16777215
176
     1
 74
     1
176
     1
 91
       10
176
     1
 64
     7
176
     1
 65
   257
176
     1
 75
     2
176
     1
175
     1
176
     1
 42
1.0
176
     1
 92
        8
176
     1
 66
   257
176
     1
 43
1.0
176
     1
 76
     1
176
     1
 77
     6
176
     1
 78
     2
176
     1
 67
     7
176
     1
 79
     3
176
     1
170
     0
176
     1
171
     0
176
     1
290
     0
176
     1
 93
        5
176
     1
 44
0.0
176
     1
173
     0
176
     1
  0
VISUALSTYLE
  5
E2
102
{ACAD_REACTORS
330
CE
102
}
102
{ACAD_XDICTIONARY
360
113
102
}
330
CE
100
AcDbVisualStyle
  2
Shades of Gray
 70
    23
177
     2
291
     0
 71
     2
176
     1
 72
     2
176
     1
 73
     3
176
     1
 90
        0
176
     1
 40
0.6
176
     1
 41
30.0
176
     1
 62
     5
 63
     7
421
 16777215
176
     1
 74
     2
176
     1
 91
        2
176
     1
 64
     7
176
     1
 65
     7
176
     1
 75
     1
176
     1
175
     1
176
     1
 42
40.0
176
     1
 92
        8
176
     1
 66
     7
176
     1
 43
1.0
176
     1
 76
     1
176
     1
 77
     6
176
     1
 78
     2
176
     1
 67
     7
176
     1
 79
     3
176
     1
170
     0
176
     1
171
     0
176
     1
290
     0
176
     1
 93
        1
176
     1
 44
0.0
176
     1
173
     0
176
     1
  0
VISUALSTYLE
  5
E3
102
{ACAD_REACTORS
330
CE
102
}
102
{ACAD_XDICTIONARY
360
115
102
}
330
CE
100
AcDbVisualStyle
  2
Sketchy
 70
    24
177
     2
291
     0
 71
     1
176
     1
 72
     2
176
     1
 73
     2
176
     1
 90
        0
176
     1
 40
0.6
176
     1
 41
30.0
176
     1
 62
     5
 63
     7
421
 16777215
176
     1
 74
     2
176
     1
 91
        2
176
     1
 64
     7
176
     1
 65
     7
176
     1
 75
     1
176
     1
175
     1
176
     1
 42
40.0
176
     1
 92
       11
176
     1
 66
     7
176
     1
 43
1.0
176
     1
 76
     1
176
     1
 77
     6
176
     1
 78
     2
176
     1
 67
     7
176
     1
 79
     6
176
     1
170
     0
176
     1
171
     0
176
     1
290
     0
176
     1
 93
        1
176
     1
 44
0.0
176
     1
173
     0
176
     1
  0
VISUALSTYLE
  5
DB
102
{ACAD_REACTORS
330
CE
102
}
102
{ACAD_XDICTIONARY
360
105
102
}
330
CE
100
AcDbVisualStyle
  2
Thicken
 70
    13
177
     2
291
     1
 71
     2
176
     1
 72
     2
176
     1
 73
     0
176
     1
 90
        0
176
     1
 40
0.6
176
     1
 41
30.0
176
     1
 62
     5
 63
     7
421
 16777215
176
     1
 74
     1
176
     1
 91
        4
176
     1
 64
     7
176
     1
 65
   257
176
     1
 75
     1
176
     1
175
     1
176
     1
 42
1.0
176
     1
 92
       12
176
     1
 66
     7
176
     1
 43
1.0
176
     1
 76
     1
176
     1
 77
     6
176
     1
 78
     2
176
     1
 67
     7
176
     1
 79
     5
176
     1
170
     0
176
     1
171
     0
176
     1
290
     0
176
     1
 93
        1
176
     1
 44
0.0
176
     1
173
     0
176
     1
  0
VISUALSTYLE
  5
D4
102
{ACAD_REACTORS
330
CE
102
}
102
{ACAD_XDICTIONARY
360
F7
102
}
330
CE
100
AcDbVisualStyle
  2
Wireframe
 70
     5
177
     2
291
     0
 71
     0
176
     1
 72
     2
176
     1
 73
     0
176
     1
 90
        0
176
     1
 40
0.6
176
     1
 41
30.0
176
     1
 62
     5
 63
     7
421
 16777215
176
     1
 74
     1
176
     1
 91
        4
176
     1
 64
     7
176
     1
 65
   257
176
     1
 75
     1
176
     1
175
     1
176
     1
 42
1.0
176
     1
 92
        0
176
     1
 66
   257
176
     1
 43
1.0
176
     1
 76
     1
176
     1
 77
     6
176
     1
 78
     2
176
     1
 67
     7
176
     1
 79
     3
176
     1
170
     0
176
     1
171
     0
176
     1
290
     0
176
     1
 93
        1
176
     1
 44
0.0
176
     1
173
     0
176
     1
  0
VISUALSTYLE
  5
E4
102
{ACAD_REACTORS
330
CE
102
}
102
{ACAD_XDICTIONARY
360
117
102
}
330
CE
100
AcDbVisualStyle
  2
X-Ray
 70
    25
177
     2
291
     0
 71
     2
176
     1
 72
     2
176
     1
 73
     1
176
     1
 90
        1
176
     1
 40
0.5
176
     1
 41
30.0
176
     1
 62
     5
 63
     7
421
 16777215
176
     1
 74
     1
176
     1
 91
        0
176
     1
 64
     7
176
     1
 65
   257
176
     1
 75
     1
176
     1
175
     1
176
     1
 42
1.0
176
     1
 92
        8
176
     1
 66
     7
176
     1
 43
1.0
176
     1
 76
     1
176
     1
 77
     6
176
     1
 78
     2
176
     1
 67
     7
176
     1
 79
     3
176
     1
170
     0
176
     1
171
     0
176
     1
290
     0
176
     1
 93
       13
176
     1
 44
0.0
176
     1
173
     0
176
     1
  0
DICTIONARYVAR
  5
EC
102
{ACAD_REACTORS
330
EB
102
}
330
EB
100
DictionaryVariables
280
     0
  1
1:1
  0
DICTIONARYVAR
  5
11F
102
{ACAD_REACTORS
330
EB
102
}
330
EB
100
DictionaryVariables
280
     0
  1
0
  0
DICTIONARY
  5
F5
330
D3
100
AcDbDictionary
280
     1
281
     1
  3
ACAD_XREC_ROUNDTRIP
360
F6
  0
DICTIONARY
  5
FB
330
D6
100
AcDbDictionary
280
     1
281
     1
  3
ACAD_XREC_ROUNDTRIP
360
FC
  0
DICTIONARY
  5
103
330
DA
100
AcDbDictionary
280
     1
281
     1
  3
ACAD_XREC_ROUNDTRIP
360
104
  0
DICTIONARY
  5
10B
330
DE
100
AcDbDictionary
280
     1
281
     1
  3
ACAD_XREC_ROUNDTRIP
360
10C
  0
DICTIONARY
  5
FF
330
D8
100
AcDbDictionary
280
     1
281
     1
  3
ACAD_XREC_ROUNDTRIP
360
100
  0
DICTIONARY
  5
101
330
D9
100
AcDbDictionary
280
     1
281
     1
  3
ACAD_XREC_ROUNDTRIP
360
102
  0
DICTIONARY
  5
111
330
E1
100
AcDbDictionary
280
     1
281
     1
  3
ACAD_XREC_ROUNDTRIP
360
112
  0
DICTIONARY
  5
109
330
DD
100
AcDbDictionary
280
     1
281
     1
  3
ACAD_XREC_ROUNDTRIP
360
10A
  0
DICTIONARY
  5
ED
330
CF
100
AcDbDictionary
280
     1
281
     1
  3
ACAD_XREC_ROUNDTRIP
360
EE
  0
DICTIONARY
  5
EF
330
D0
100
AcDbDictionary
280
     1
281
     1
  3
ACAD_XREC_ROUNDTRIP
360
F0
  0
DICTIONARY
  5
F1
330
D1
100
AcDbDictionary
280
     1
281
     1
  3
ACAD_XREC_ROUNDTRIP
360
F2
  0
DICTIONARY
  5
F3
330
D2
100
AcDbDictionary
280
     1
281
     1
  3
ACAD_XREC_ROUNDTRIP
360
F4
  0
DICTIONARY
  5
F9
330
D5
100
AcDbDictionary
280
     1
281
     1
  3
ACAD_XREC_ROUNDTRIP
360
FA
  0
DICTIONARY
  5
10D
330
DF
100
AcDbDictionary
280
     1
281
     1
  3
ACAD_XREC_ROUNDTRIP
360
10E
  0
DICTIONARY
  5
107
330
DC
100
AcDbDictionary
280
     1
281
     1
  3
ACAD_XREC_ROUNDTRIP
360
108
  0
DICTIONARY
  5
10F
330
E0
100
AcDbDictionary
280
     1
281
     1
  3
ACAD_XREC_ROUNDTRIP
360
110
  0
DICTIONARY
  5
FD
330
D7
100
AcDbDictionary
280
     1
281
     1
  3
ACAD_XREC_ROUNDTRIP
360
FE
  0
DICTIONARY
  5
11B
330
E6
100
AcDbDictionary
280
     1
281
     1
  3
ACAD_XREC_ROUNDTRIP
360
11C
  0
DICTIONARY
  5
119
330
E5
100
AcDbDictionary
280
     1
281
     1
  3
ACAD_XREC_ROUNDTRIP
360
11A
  0
DICTIONARY
  5
113
330
E2
100
AcDbDictionary
280
     1
281
     1
  3
ACAD_XREC_ROUNDTRIP
360
114
  0
DICTIONARY
  5
115
330
E3
100
AcDbDictionary
280
     1
281
     1
  3
ACAD_XREC_ROUNDTRIP
360
116
  0
DICTIONARY
  5
105
330
DB
100
AcDbDictionary
280
     1
281
     1
  3
ACAD_XREC_ROUNDTRIP
360
106
  0
DICTIONARY
  5
F7
330
D4
100
AcDbDictionary
280
     1
281
     1
  3
ACAD_XREC_ROUNDTRIP
360
F8
  0
DICTIONARY
  5
117
330
E4
100
AcDbDictionary
280
     1
281
     1
  3
ACAD_XREC_ROUNDTRIP
360
118
  0
XRECORD
  5
F6
102
{ACAD_REACTORS
330
F5
102
}
330
F5
100
AcDbXrecord
280
     1
102
RTVSPost2010Prop28
280
     1
102
RTVSPost2010PropOp28
 70
     1
102
RTVSPost2010Prop29
280
     1
102
RTVSPost2010PropOp29
 70
     1
102
RTVSPost2010Prop30
280
     0
102
RTVSPost2010PropOp30
 70
     1
102
RTVSPost2010Prop31
280
     0
102
RTVSPost2010PropOp31
 70
     1
102
RTVSPost2010Prop32
280
     0
102
RTVSPost2010PropOp32
 70
     1
102
RTVSPost2010Prop33
280
     0
102
RTVSPost2010PropOp33
 70
     1
102
RTVSPost2010Prop34
280
     0
102
RTVSPost2010PropOp34
 70
     1
102
RTVSPost2010Prop35
280
     0
102
RTVSPost2010PropOp35
 70
     1
102
RTVSPost2010Prop36
280
     0
102
RTVSPost2010PropOp36
 70
     1
102
RTVSPost2010Prop37
 90
       50
102
RTVSPost2010PropOp37
 70
     1
102
RTVSPost2010Prop38
140
0.0
102
RTVSPost2010PropOp38
 70
     1
102
RTVSPost2010Prop39
140
1.0
102
RTVSPost2010PropOp39
 70
     1
102
RTVSPost2010Prop40
 90
        0
102
RTVSPost2010PropOp40
 70
     1
102
RTVSPost2010Prop41ColorIndex
 90
       18
102
RTVSPost2010Prop41ColorRGB
 90
        0
102
RTVSPost2010PropOp41
 70
     1
102
RTVSPost2010Prop42
 90
       50
102
RTVSPost2010PropOp42
 70
     1
102
RTVSPost2010Prop43
 90
        3
102
RTVSPost2010PropOp43
 70
     1
102
RTVSPost2010Prop44ColorIndex
 90
        5
102
RTVSPost2010Prop44ColorRGB
 90
      255
102
RTVSPost2010PropOp44
 70
     1
102
RTVSPost2010Prop45
280
     0
102
RTVSPost2010PropOp45
 70
     1
102
RTVSPost2010Prop46
 90
       50
102
RTVSPost2010PropOp46
 70
     1
102
RTVSPost2010Prop47
 90
       50
102
RTVSPost2010PropOp47
 70
     1
102
RTVSPost2010Prop48
 90
       50
102
RTVSPost2010PropOp48
 70
     1
102
RTVSPost2010Prop49
280
     0
102
RTVSPost2010PropOp49
 70
     1
102
RTVSPost2010Prop50
 90
       50
102
RTVSPost2010PropOp50
 70
     1
102
RTVSPost2010Prop51ColorIndex
 90
      256
102
RTVSPost2010Prop51ColorRGB
 90
-16777216
102
RTVSPost2010PropOp51
 70
     0
102
RTVSPost2010Prop52
140
1.0
102
RTVSPost2010PropOp52
 70
     0
102
RTVSPost2010Prop53
 90
        2
102
RTVSPost2010PropOp53
 70
     1
102
RTVSPost2010Prop54
  1
strokes_ogs.tif
102
RTVSPost2010PropOp54
 70
     1
102
RTVSPost2010Prop55
280
     0
102
RTVSPost2010PropOp55
 70
     1
102
RTVSPost2010Prop56
140
1.0
102
RTVSPost2010PropOp56
 70
     1
102
RTVSPost2010Prop57
140
1.0
102
RTVSPost2010PropOp57
 70
     1
  0
XRECORD
  5
FC
102
{ACAD_REACTORS
330
FB
102
}
330
FB
100
AcDbXrecord
280
     1
102
RTVSPost2010Prop28
280
     0
102
RTVSPost2010PropOp28
 70
     1
102
RTVSPost2010Prop29
280
     1
102
RTVSPost2010PropOp29
 70
     1
102
RTVSPost2010Prop30
280
     1
102
RTVSPost2010PropOp30
 70
     1
102
RTVSPost2010Prop31
280
     0
102
RTVSPost2010PropOp31
 70
     1
102
RTVSPost2010Prop32
280
     0
102
RTVSPost2010PropOp32
 70
     1
102
RTVSPost2010Prop33
280
     0
102
RTVSPost2010PropOp33
 70
     1
102
RTVSPost2010Prop34
280
     0
102
RTVSPost2010PropOp34
 70
     1
102
RTVSPost2010Prop35
280
     0
102
RTVSPost2010PropOp35
 70
     1
102
RTVSPost2010Prop36
280
     0
102
RTVSPost2010PropOp36
 70
     1
102
RTVSPost2010Prop37
 90
       50
102
RTVSPost2010PropOp37
 70
     1
102
RTVSPost2010Prop38
140
0.0
102
RTVSPost2010PropOp38
 70
     1
102
RTVSPost2010Prop39
140
1.0
102
RTVSPost2010PropOp39
 70
     1
102
RTVSPost2010Prop40
 90
        0
102
RTVSPost2010PropOp40
 70
     1
102
RTVSPost2010Prop41ColorIndex
 90
       18
102
RTVSPost2010Prop41ColorRGB
 90
        0
102
RTVSPost2010PropOp41
 70
     1
102
RTVSPost2010Prop42
 90
       50
102
RTVSPost2010PropOp42
 70
     1
102
RTVSPost2010Prop43
 90
        3
102
RTVSPost2010PropOp43
 70
     1
102
RTVSPost2010Prop44ColorIndex
 90
        5
102
RTVSPost2010Prop44ColorRGB
 90
      255
102
RTVSPost2010PropOp44
 70
     1
102
RTVSPost2010Prop45
280
     0
102
RTVSPost2010PropOp45
 70
     1
102
RTVSPost2010Prop46
 90
       50
102
RTVSPost2010PropOp46
 70
     1
102
RTVSPost2010Prop47
 90
       50
102
RTVSPost2010PropOp47
 70
     1
102
RTVSPost2010Prop48
 90
       50
102
RTVSPost2010PropOp48
 70
     1
102
RTVSPost2010Prop49
280
     0
102
RTVSPost2010PropOp49
 70
     1
102
RTVSPost2010Prop50
 90
       50
102
RTVSPost2010PropOp50
 70
     1
102
RTVSPost2010Prop51ColorIndex
 90
      256
102
RTVSPost2010Prop51ColorRGB
 90
-16777216
102
RTVSPost2010PropOp51
 70
     0
102
RTVSPost2010Prop52
140
1.0
102
RTVSPost2010PropOp52
 70
     0
102
RTVSPost2010Prop53
 90
        2
102
RTVSPost2010PropOp53
 70
     1
102
RTVSPost2010Prop54
  1
strokes_ogs.tif
102
RTVSPost2010PropOp54
 70
     1
102
RTVSPost2010Prop55
280
     0
102
RTVSPost2010PropOp55
 70
     1
102
RTVSPost2010Prop56
140
1.0
102
RTVSPost2010PropOp56
 70
     1
102
RTVSPost2010Prop57
140
1.0
102
RTVSPost2010PropOp57
 70
     1
  0
XRECORD
  5
104
102
{ACAD_REACTORS
330
103
102
}
330
103
100
AcDbXrecord
280
     1
102
RTVSPost2010Prop28
280
     0
102
RTVSPost2010PropOp28
 70
     1
102
RTVSPost2010Prop29
280
     1
102
RTVSPost2010PropOp29
 70
     1
102
RTVSPost2010Prop30
280
     1
102
RTVSPost2010PropOp30
 70
     1
102
RTVSPost2010Prop31
280
     0
102
RTVSPost2010PropOp31
 70
     1
102
RTVSPost2010Prop32
280
     0
102
RTVSPost2010PropOp32
 70
     1
102
RTVSPost2010Prop33
280
     0
102
RTVSPost2010PropOp33
 70
     1
102
RTVSPost2010Prop34
280
     0
102
RTVSPost2010PropOp34
 70
     1
102
RTVSPost2010Prop35
280
     0
102
RTVSPost2010PropOp35
 70
     1
102
RTVSPost2010Prop36
280
     0
102
RTVSPost2010PropOp36
 70
     1
102
RTVSPost2010Prop37
 90
       50
102
RTVSPost2010PropOp37
 70
     1
102
RTVSPost2010Prop38
140
0.0
102
RTVSPost2010PropOp38
 70
     1
102
RTVSPost2010Prop39
140
1.0
102
RTVSPost2010PropOp39
 70
     1
102
RTVSPost2010Prop40
 90
        0
102
RTVSPost2010PropOp40
 70
     1
102
RTVSPost2010Prop41ColorIndex
 90
       18
102
RTVSPost2010Prop41ColorRGB
 90
        0
102
RTVSPost2010PropOp41
 70
     1
102
RTVSPost2010Prop42
 90
       50
102
RTVSPost2010PropOp42
 70
     1
102
RTVSPost2010Prop43
 90
        3
102
RTVSPost2010PropOp43
 70
     1
102
RTVSPost2010Prop44ColorIndex
 90
        5
102
RTVSPost2010Prop44ColorRGB
 90
      255
102
RTVSPost2010PropOp44
 70
     1
102
RTVSPost2010Prop45
280
     0
102
RTVSPost2010PropOp45
 70
     1
102
RTVSPost2010Prop46
 90
       50
102
RTVSPost2010PropOp46
 70
     1
102
RTVSPost2010Prop47
 90
       50
102
RTVSPost2010PropOp47
 70
     1
102
RTVSPost2010Prop48
 90
       50
102
RTVSPost2010PropOp48
 70
     1
102
RTVSPost2010Prop49
280
     0
102
RTVSPost2010PropOp49
 70
     1
102
RTVSPost2010Prop50
 90
       50
102
RTVSPost2010PropOp50
 70
     1
102
RTVSPost2010Prop51ColorIndex
 90
      256
102
RTVSPost2010Prop51ColorRGB
 90
-16777216
102
RTVSPost2010PropOp51
 70
     0
102
RTVSPost2010Prop52
140
1.0
102
RTVSPost2010PropOp52
 70
     0
102
RTVSPost2010Prop53
 90
        2
102
RTVSPost2010PropOp53
 70
     1
102
RTVSPost2010Prop54
  1
strokes_ogs.tif
102
RTVSPost2010PropOp54
 70
     1
102
RTVSPost2010Prop55
280
     0
102
RTVSPost2010PropOp55
 70
     1
102
RTVSPost2010Prop56
140
1.0
102
RTVSPost2010PropOp56
 70
     1
102
RTVSPost2010Prop57
140
1.0
102
RTVSPost2010PropOp57
 70
     1
  0
XRECORD
  5
10C
102
{ACAD_REACTORS
330
10B
102
}
330
10B
100
AcDbXrecord
280
     1
102
RTVSPost2010Prop28
280
     0
102
RTVSPost2010PropOp28
 70
     1
102
RTVSPost2010Prop29
280
     1
102
RTVSPost2010PropOp29
 70
     1
102
RTVSPost2010Prop30
280
     1
102
RTVSPost2010PropOp30
 70
     1
102
RTVSPost2010Prop31
280
     0
102
RTVSPost2010PropOp31
 70
     1
102
RTVSPost2010Prop32
280
     0
102
RTVSPost2010PropOp32
 70
     1
102
RTVSPost2010Prop33
280
     0
102
RTVSPost2010PropOp33
 70
     1
102
RTVSPost2010Prop34
280
     0
102
RTVSPost2010PropOp34
 70
     1
102
RTVSPost2010Prop35
280
     0
102
RTVSPost2010PropOp35
 70
     1
102
RTVSPost2010Prop36
280
     0
102
RTVSPost2010PropOp36
 70
     1
102
RTVSPost2010Prop37
 90
       50
102
RTVSPost2010PropOp37
 70
     1
102
RTVSPost2010Prop38
140
0.0
102
RTVSPost2010PropOp38
 70
     1
102
RTVSPost2010Prop39
140
1.0
102
RTVSPost2010PropOp39
 70
     1
102
RTVSPost2010Prop40
 90
        0
102
RTVSPost2010PropOp40
 70
     1
102
RTVSPost2010Prop41ColorIndex
 90
       18
102
RTVSPost2010Prop41ColorRGB
 90
        0
102
RTVSPost2010PropOp41
 70
     1
102
RTVSPost2010Prop42
 90
       50
102
RTVSPost2010PropOp42
 70
     1
102
RTVSPost2010Prop43
 90
        3
102
RTVSPost2010PropOp43
 70
     1
102
RTVSPost2010Prop44ColorIndex
 90
        5
102
RTVSPost2010Prop44ColorRGB
 90
      255
102
RTVSPost2010PropOp44
 70
     1
102
RTVSPost2010Prop45
280
     0
102
RTVSPost2010PropOp45
 70
     1
102
RTVSPost2010Prop46
 90
       50
102
RTVSPost2010PropOp46
 70
     1
102
RTVSPost2010Prop47
 90
       50
102
RTVSPost2010PropOp47
 70
     1
102
RTVSPost2010Prop48
 90
       50
102
RTVSPost2010PropOp48
 70
     1
102
RTVSPost2010Prop49
280
     0
102
RTVSPost2010PropOp49
 70
     1
102
RTVSPost2010Prop50
 90
       50
102
RTVSPost2010PropOp50
 70
     1
102
RTVSPost2010Prop51ColorIndex
 90
      256
102
RTVSPost2010Prop51ColorRGB
 90
-16777216
102
RTVSPost2010PropOp51
 70
     0
102
RTVSPost2010Prop52
140
1.0
102
RTVSPost2010PropOp52
 70
     0
102
RTVSPost2010Prop53
 90
        2
102
RTVSPost2010PropOp53
 70
     1
102
RTVSPost2010Prop54
  1
strokes_ogs.tif
102
RTVSPost2010PropOp54
 70
     1
102
RTVSPost2010Prop55
280
     0
102
RTVSPost2010PropOp55
 70
     1
102
RTVSPost2010Prop56
140
1.0
102
RTVSPost2010PropOp56
 70
     1
102
RTVSPost2010Prop57
140
1.0
102
RTVSPost2010PropOp57
 70
     1
  0
XRECORD
  5
100
102
{ACAD_REACTORS
330
FF
102
}
330
FF
100
AcDbXrecord
280
     1
102
RTVSPost2010Prop28
280
     0
102
RTVSPost2010PropOp28
 70
     1
102
RTVSPost2010Prop29
280
     1
102
RTVSPost2010PropOp29
 70
     1
102
RTVSPost2010Prop30
280
     1
102
RTVSPost2010PropOp30
 70
     1
102
RTVSPost2010Prop31
280
     0
102
RTVSPost2010PropOp31
 70
     1
102
RTVSPost2010Prop32
280
     0
102
RTVSPost2010PropOp32
 70
     1
102
RTVSPost2010Prop33
280
     0
102
RTVSPost2010PropOp33
 70
     1
102
RTVSPost2010Prop34
280
     0
102
RTVSPost2010PropOp34
 70
     1
102
RTVSPost2010Prop35
280
     0
102
RTVSPost2010PropOp35
 70
     1
102
RTVSPost2010Prop36
280
     0
102
RTVSPost2010PropOp36
 70
     1
102
RTVSPost2010Prop37
 90
       50
102
RTVSPost2010PropOp37
 70
     1
102
RTVSPost2010Prop38
140
0.0
102
RTVSPost2010PropOp38
 70
     1
102
RTVSPost2010Prop39
140
1.0
102
RTVSPost2010PropOp39
 70
     1
102
RTVSPost2010Prop40
 90
        0
102
RTVSPost2010PropOp40
 70
     1
102
RTVSPost2010Prop41ColorIndex
 90
       18
102
RTVSPost2010Prop41ColorRGB
 90
        0
102
RTVSPost2010PropOp41
 70
     1
102
RTVSPost2010Prop42
 90
       50
102
RTVSPost2010PropOp42
 70
     1
102
RTVSPost2010Prop43
 90
        3
102
RTVSPost2010PropOp43
 70
     1
102
RTVSPost2010Prop44ColorIndex
 90
        5
102
RTVSPost2010Prop44ColorRGB
 90
      255
102
RTVSPost2010PropOp44
 70
     1
102
RTVSPost2010Prop45
280
     0
102
RTVSPost2010PropOp45
 70
     1
102
RTVSPost2010Prop46
 90
       50
102
RTVSPost2010PropOp46
 70
     1
102
RTVSPost2010Prop47
 90
       50
102
RTVSPost2010PropOp47
 70
     1
102
RTVSPost2010Prop48
 90
       50
102
RTVSPost2010PropOp48
 70
     1
102
RTVSPost2010Prop49
280
     0
102
RTVSPost2010PropOp49
 70
     1
102
RTVSPost2010Prop50
 90
       50
102
RTVSPost2010PropOp50
 70
     1
102
RTVSPost2010Prop51ColorIndex
 90
      256
102
RTVSPost2010Prop51ColorRGB
 90
-16777216
102
RTVSPost2010PropOp51
 70
     0
102
RTVSPost2010Prop52
140
1.0
102
RTVSPost2010PropOp52
 70
     0
102
RTVSPost2010Prop53
 90
        2
102
RTVSPost2010PropOp53
 70
     1
102
RTVSPost2010Prop54
  1
strokes_ogs.tif
102
RTVSPost2010PropOp54
 70
     1
102
RTVSPost2010Prop55
280
     0
102
RTVSPost2010PropOp55
 70
     1
102
RTVSPost2010Prop56
140
1.0
102
RTVSPost2010PropOp56
 70
     1
102
RTVSPost2010Prop57
140
1.0
102
RTVSPost2010PropOp57
 70
     1
  0
XRECORD
  5
102
102
{ACAD_REACTORS
330
101
102
}
330
101
100
AcDbXrecord
280
     1
102
RTVSPost2010Prop28
280
     0
102
RTVSPost2010PropOp28
 70
     1
102
RTVSPost2010Prop29
280
     1
102
RTVSPost2010PropOp29
 70
     1
102
RTVSPost2010Prop30
280
     1
102
RTVSPost2010PropOp30
 70
     1
102
RTVSPost2010Prop31
280
     0
102
RTVSPost2010PropOp31
 70
     1
102
RTVSPost2010Prop32
280
     0
102
RTVSPost2010PropOp32
 70
     1
102
RTVSPost2010Prop33
280
     0
102
RTVSPost2010PropOp33
 70
     1
102
RTVSPost2010Prop34
280
     0
102
RTVSPost2010PropOp34
 70
     1
102
RTVSPost2010Prop35
280
     0
102
RTVSPost2010PropOp35
 70
     1
102
RTVSPost2010Prop36
280
     0
102
RTVSPost2010PropOp36
 70
     1
102
RTVSPost2010Prop37
 90
       50
102
RTVSPost2010PropOp37
 70
     1
102
RTVSPost2010Prop38
140
0.0
102
RTVSPost2010PropOp38
 70
     1
102
RTVSPost2010Prop39
140
1.0
102
RTVSPost2010PropOp39
 70
     1
102
RTVSPost2010Prop40
 90
        0
102
RTVSPost2010PropOp40
 70
     1
102
RTVSPost2010Prop41ColorIndex
 90
       18
102
RTVSPost2010Prop41ColorRGB
 90
        0
102
RTVSPost2010PropOp41
 70
     1
102
RTVSPost2010Prop42
 90
       50
102
RTVSPost2010PropOp42
 70
     1
102
RTVSPost2010Prop43
 90
        3
102
RTVSPost2010PropOp43
 70
     1
102
RTVSPost2010Prop44ColorIndex
 90
        5
102
RTVSPost2010Prop44ColorRGB
 90
      255
102
RTVSPost2010PropOp44
 70
     1
102
RTVSPost2010Prop45
280
     0
102
RTVSPost2010PropOp45
 70
     1
102
RTVSPost2010Prop46
 90
       50
102
RTVSPost2010PropOp46
 70
     1
102
RTVSPost2010Prop47
 90
       50
102
RTVSPost2010PropOp47
 70
     1
102
RTVSPost2010Prop48
 90
       50
102
RTVSPost2010PropOp48
 70
     1
102
RTVSPost2010Prop49
280
     0
102
RTVSPost2010PropOp49
 70
     1
102
RTVSPost2010Prop50
 90
       50
102
RTVSPost2010PropOp50
 70
     1
102
RTVSPost2010Prop51ColorIndex
 90
      256
102
RTVSPost2010Prop51ColorRGB
 90
-16777216
102
RTVSPost2010PropOp51
 70
     0
102
RTVSPost2010Prop52
140
1.0
102
RTVSPost2010PropOp52
 70
     0
102
RTVSPost2010Prop53
 90
        2
102
RTVSPost2010PropOp53
 70
     1
102
RTVSPost2010Prop54
  1
strokes_ogs.tif
102
RTVSPost2010PropOp54
 70
     1
102
RTVSPost2010Prop55
280
     0
102
RTVSPost2010PropOp55
 70
     1
102
RTVSPost2010Prop56
140
1.0
102
RTVSPost2010PropOp56
 70
     1
102
RTVSPost2010Prop57
140
1.0
102
RTVSPost2010PropOp57
 70
     1
  0
XRECORD
  5
112
102
{ACAD_REACTORS
330
111
102
}
330
111
100
AcDbXrecord
280
     1
102
RTVSPost2010Prop28
280
     0
102
RTVSPost2010PropOp28
 70
     0
102
RTVSPost2010Prop29
280
     1
102
RTVSPost2010PropOp29
 70
     0
102
RTVSPost2010Prop30
280
     1
102
RTVSPost2010PropOp30
 70
     0
102
RTVSPost2010Prop31
280
     0
102
RTVSPost2010PropOp31
 70
     0
102
RTVSPost2010Prop32
280
     0
102
RTVSPost2010PropOp32
 70
     0
102
RTVSPost2010Prop33
280
     0
102
RTVSPost2010PropOp33
 70
     0
102
RTVSPost2010Prop34
280
     0
102
RTVSPost2010PropOp34
 70
     0
102
RTVSPost2010Prop35
280
     0
102
RTVSPost2010PropOp35
 70
     0
102
RTVSPost2010Prop36
280
     0
102
RTVSPost2010PropOp36
 70
     0
102
RTVSPost2010Prop37
 90
       50
102
RTVSPost2010PropOp37
 70
     0
102
RTVSPost2010Prop38
140
0.0
102
RTVSPost2010PropOp38
 70
     0
102
RTVSPost2010Prop39
140
1.0
102
RTVSPost2010PropOp39
 70
     0
102
RTVSPost2010Prop40
 90
        0
102
RTVSPost2010PropOp40
 70
     0
102
RTVSPost2010Prop41ColorIndex
 90
       18
102
RTVSPost2010Prop41ColorRGB
 90
        0
102
RTVSPost2010PropOp41
 70
     0
102
RTVSPost2010Prop42
 90
       50
102
RTVSPost2010PropOp42
 70
     0
102
RTVSPost2010Prop43
 90
        3
102
RTVSPost2010PropOp43
 70
     0
102
RTVSPost2010Prop44ColorIndex
 90
        5
102
RTVSPost2010Prop44ColorRGB
 90
      255
102
RTVSPost2010PropOp44
 70
     0
102
RTVSPost2010Prop45
280
     0
102
RTVSPost2010PropOp45
 70
     0
102
RTVSPost2010Prop46
 90
       50
102
RTVSPost2010PropOp46
 70
     0
102
RTVSPost2010Prop47
 90
       50
102
RTVSPost2010PropOp47
 70
     0
102
RTVSPost2010Prop48
 90
       50
102
RTVSPost2010PropOp48
 70
     0
102
RTVSPost2010Prop49
280
     0
102
RTVSPost2010PropOp49
 70
     0
102
RTVSPost2010Prop50
 90
       50
102
RTVSPost2010PropOp50
 70
     0
102
RTVSPost2010Prop51ColorIndex
 90
      256
102
RTVSPost2010Prop51ColorRGB
 90
-16777216
102
RTVSPost2010PropOp51
 70
     0
102
RTVSPost2010Prop52
140
1.0
102
RTVSPost2010PropOp52
 70
     0
102
RTVSPost2010Prop53
 90
        2
102
RTVSPost2010PropOp53
 70
     0
102
RTVSPost2010Prop54
  1
strokes_ogs.tif
102
RTVSPost2010PropOp54
 70
     0
102
RTVSPost2010Prop55
280
     0
102
RTVSPost2010PropOp55
 70
     0
102
RTVSPost2010Prop56
140
1.0
102
RTVSPost2010PropOp56
 70
     0
102
RTVSPost2010Prop57
140
1.0
102
RTVSPost2010PropOp57
 70
     0
  0
XRECORD
  5
10A
102
{ACAD_REACTORS
330
109
102
}
330
109
100
AcDbXrecord
280
     1
102
RTVSPost2010Prop28
280
     0
102
RTVSPost2010PropOp28
 70
     1
102
RTVSPost2010Prop29
280
     1
102
RTVSPost2010PropOp29
 70
     1
102
RTVSPost2010Prop30
280
     1
102
RTVSPost2010PropOp30
 70
     1
102
RTVSPost2010Prop31
280
     0
102
RTVSPost2010PropOp31
 70
     1
102
RTVSPost2010Prop32
280
     0
102
RTVSPost2010PropOp32
 70
     1
102
RTVSPost2010Prop33
280
     0
102
RTVSPost2010PropOp33
 70
     1
102
RTVSPost2010Prop34
280
     0
102
RTVSPost2010PropOp34
 70
     1
102
RTVSPost2010Prop35
280
     0
102
RTVSPost2010PropOp35
 70
     1
102
RTVSPost2010Prop36
280
     0
102
RTVSPost2010PropOp36
 70
     1
102
RTVSPost2010Prop37
 90
       50
102
RTVSPost2010PropOp37
 70
     1
102
RTVSPost2010Prop38
140
0.0
102
RTVSPost2010PropOp38
 70
     1
102
RTVSPost2010Prop39
140
1.0
102
RTVSPost2010PropOp39
 70
     1
102
RTVSPost2010Prop40
 90
        0
102
RTVSPost2010PropOp40
 70
     1
102
RTVSPost2010Prop41ColorIndex
 90
       18
102
RTVSPost2010Prop41ColorRGB
 90
        0
102
RTVSPost2010PropOp41
 70
     1
102
RTVSPost2010Prop42
 90
       50
102
RTVSPost2010PropOp42
 70
     1
102
RTVSPost2010Prop43
 90
        3
102
RTVSPost2010PropOp43
 70
     1
102
RTVSPost2010Prop44ColorIndex
 90
        5
102
RTVSPost2010Prop44ColorRGB
 90
      255
102
RTVSPost2010PropOp44
 70
     1
102
RTVSPost2010Prop45
280
     0
102
RTVSPost2010PropOp45
 70
     1
102
RTVSPost2010Prop46
 90
       50
102
RTVSPost2010PropOp46
 70
     1
102
RTVSPost2010Prop47
 90
       50
102
RTVSPost2010PropOp47
 70
     1
102
RTVSPost2010Prop48
 90
       50
102
RTVSPost2010PropOp48
 70
     1
102
RTVSPost2010Prop49
280
     0
102
RTVSPost2010PropOp49
 70
     1
102
RTVSPost2010Prop50
 90
       50
102
RTVSPost2010PropOp50
 70
     1
102
RTVSPost2010Prop51ColorIndex
 90
      256
102
RTVSPost2010Prop51ColorRGB
 90
-16777216
102
RTVSPost2010PropOp51
 70
     0
102
RTVSPost2010Prop52
140
1.0
102
RTVSPost2010PropOp52
 70
     0
102
RTVSPost2010Prop53
 90
        2
102
RTVSPost2010PropOp53
 70
     1
102
RTVSPost2010Prop54
  1
strokes_ogs.tif
102
RTVSPost2010PropOp54
 70
     1
102
RTVSPost2010Prop55
280
     0
102
RTVSPost2010PropOp55
 70
     1
102
RTVSPost2010Prop56
140
1.0
102
RTVSPost2010PropOp56
 70
     1
102
RTVSPost2010Prop57
140
1.0
102
RTVSPost2010PropOp57
 70
     1
  0
XRECORD
  5
EE
102
{ACAD_REACTORS
330
ED
102
}
330
ED
100
AcDbXrecord
280
     1
102
RTVSPost2010Prop28
280
     0
102
RTVSPost2010PropOp28
 70
     1
102
RTVSPost2010Prop29
280
     1
102
RTVSPost2010PropOp29
 70
     1
102
RTVSPost2010Prop30
280
     1
102
RTVSPost2010PropOp30
 70
     1
102
RTVSPost2010Prop31
280
     0
102
RTVSPost2010PropOp31
 70
     1
102
RTVSPost2010Prop32
280
     0
102
RTVSPost2010PropOp32
 70
     1
102
RTVSPost2010Prop33
280
     0
102
RTVSPost2010PropOp33
 70
     1
102
RTVSPost2010Prop34
280
     0
102
RTVSPost2010PropOp34
 70
     1
102
RTVSPost2010Prop35
280
     0
102
RTVSPost2010PropOp35
 70
     1
102
RTVSPost2010Prop36
280
     0
102
RTVSPost2010PropOp36
 70
     1
102
RTVSPost2010Prop37
 90
       50
102
RTVSPost2010PropOp37
 70
     1
102
RTVSPost2010Prop38
140
0.0
102
RTVSPost2010PropOp38
 70
     1
102
RTVSPost2010Prop39
140
1.0
102
RTVSPost2010PropOp39
 70
     1
102
RTVSPost2010Prop40
 90
        0
102
RTVSPost2010PropOp40
 70
     1
102
RTVSPost2010Prop41ColorIndex
 90
       18
102
RTVSPost2010Prop41ColorRGB
 90
        0
102
RTVSPost2010PropOp41
 70
     1
102
RTVSPost2010Prop42
 90
       50
102
RTVSPost2010PropOp42
 70
     1
102
RTVSPost2010Prop43
 90
        3
102
RTVSPost2010PropOp43
 70
     1
102
RTVSPost2010Prop44ColorIndex
 90
        5
102
RTVSPost2010Prop44ColorRGB
 90
      255
102
RTVSPost2010PropOp44
 70
     1
102
RTVSPost2010Prop45
280
     0
102
RTVSPost2010PropOp45
 70
     1
102
RTVSPost2010Prop46
 90
       50
102
RTVSPost2010PropOp46
 70
     1
102
RTVSPost2010Prop47
 90
       50
102
RTVSPost2010PropOp47
 70
     1
102
RTVSPost2010Prop48
 90
       50
102
RTVSPost2010PropOp48
 70
     1
102
RTVSPost2010Prop49
280
     0
102
RTVSPost2010PropOp49
 70
     1
102
RTVSPost2010Prop50
 90
       50
102
RTVSPost2010PropOp50
 70
     1
102
RTVSPost2010Prop51ColorIndex
 90
      256
102
RTVSPost2010Prop51ColorRGB
 90
-16777216
102
RTVSPost2010PropOp51
 70
     0
102
RTVSPost2010Prop52
140
1.0
102
RTVSPost2010PropOp52
 70
     0
102
RTVSPost2010Prop53
 90
        2
102
RTVSPost2010PropOp53
 70
     1
102
RTVSPost2010Prop54
  1
strokes_ogs.tif
102
RTVSPost2010PropOp54
 70
     1
102
RTVSPost2010Prop55
280
     0
102
RTVSPost2010PropOp55
 70
     1
102
RTVSPost2010Prop56
140
1.0
102
RTVSPost2010PropOp56
 70
     1
102
RTVSPost2010Prop57
140
1.0
102
RTVSPost2010PropOp57
 70
     1
  0
XRECORD
  5
F0
102
{ACAD_REACTORS
330
EF
102
}
330
EF
100
AcDbXrecord
280
     1
102
RTVSPost2010Prop28
280
     0
102
RTVSPost2010PropOp28
 70
     1
102
RTVSPost2010Prop29
280
     1
102
RTVSPost2010PropOp29
 70
     1
102
RTVSPost2010Prop30
280
     1
102
RTVSPost2010PropOp30
 70
     1
102
RTVSPost2010Prop31
280
     0
102
RTVSPost2010PropOp31
 70
     1
102
RTVSPost2010Prop32
280
     0
102
RTVSPost2010PropOp32
 70
     1
102
RTVSPost2010Prop33
280
     0
102
RTVSPost2010PropOp33
 70
     1
102
RTVSPost2010Prop34
280
     0
102
RTVSPost2010PropOp34
 70
     1
102
RTVSPost2010Prop35
280
     0
102
RTVSPost2010PropOp35
 70
     1
102
RTVSPost2010Prop36
280
     0
102
RTVSPost2010PropOp36
 70
     1
102
RTVSPost2010Prop37
 90
       50
102
RTVSPost2010PropOp37
 70
     1
102
RTVSPost2010Prop38
140
0.0
102
RTVSPost2010PropOp38
 70
     1
102
RTVSPost2010Prop39
140
1.0
102
RTVSPost2010PropOp39
 70
     1
102
RTVSPost2010Prop40
 90
        0
102
RTVSPost2010PropOp40
 70
     1
102
RTVSPost2010Prop41ColorIndex
 90
       18
102
RTVSPost2010Prop41ColorRGB
 90
        0
102
RTVSPost2010PropOp41
 70
     1
102
RTVSPost2010Prop42
 90
       50
102
RTVSPost2010PropOp42
 70
     1
102
RTVSPost2010Prop43
 90
        3
102
RTVSPost2010PropOp43
 70
     1
102
RTVSPost2010Prop44ColorIndex
 90
        5
102
RTVSPost2010Prop44ColorRGB
 90
      255
102
RTVSPost2010PropOp44
 70
     1
102
RTVSPost2010Prop45
280
     0
102
RTVSPost2010PropOp45
 70
     1
102
RTVSPost2010Prop46
 90
       50
102
RTVSPost2010PropOp46
 70
     1
102
RTVSPost2010Prop47
 90
       50
102
RTVSPost2010PropOp47
 70
     1
102
RTVSPost2010Prop48
 90
       50
102
RTVSPost2010PropOp48
 70
     1
102
RTVSPost2010Prop49
280
     0
102
RTVSPost2010PropOp49
 70
     1
102
RTVSPost2010Prop50
 90
       50
102
RTVSPost2010PropOp50
 70
     1
102
RTVSPost2010Prop51ColorIndex
 90
      256
102
RTVSPost2010Prop51ColorRGB
 90
-16777216
102
RTVSPost2010PropOp51
 70
     0
102
RTVSPost2010Prop52
140
1.0
102
RTVSPost2010PropOp52
 70
     0
102
RTVSPost2010Prop53
 90
        2
102
RTVSPost2010PropOp53
 70
     1
102
RTVSPost2010Prop54
  1
strokes_ogs.tif
102
RTVSPost2010PropOp54
 70
     1
102
RTVSPost2010Prop55
280
     0
102
RTVSPost2010PropOp55
 70
     1
102
RTVSPost2010Prop56
140
1.0
102
RTVSPost2010PropOp56
 70
     1
102
RTVSPost2010Prop57
140
1.0
102
RTVSPost2010PropOp57
 70
     1
  0
XRECORD
  5
F2
102
{ACAD_REACTORS
330
F1
102
}
330
F1
100
AcDbXrecord
280
     1
102
RTVSPost2010Prop28
280
     0
102
RTVSPost2010PropOp28
 70
     1
102
RTVSPost2010Prop29
280
     1
102
RTVSPost2010PropOp29
 70
     1
102
RTVSPost2010Prop30
280
     1
102
RTVSPost2010PropOp30
 70
     1
102
RTVSPost2010Prop31
280
     0
102
RTVSPost2010PropOp31
 70
     1
102
RTVSPost2010Prop32
280
     0
102
RTVSPost2010PropOp32
 70
     1
102
RTVSPost2010Prop33
280
     0
102
RTVSPost2010PropOp33
 70
     1
102
RTVSPost2010Prop34
280
     0
102
RTVSPost2010PropOp34
 70
     1
102
RTVSPost2010Prop35
280
     0
102
RTVSPost2010PropOp35
 70
     1
102
RTVSPost2010Prop36
280
     0
102
RTVSPost2010PropOp36
 70
     1
102
RTVSPost2010Prop37
 90
       50
102
RTVSPost2010PropOp37
 70
     1
102
RTVSPost2010Prop38
140
0.0
102
RTVSPost2010PropOp38
 70
     1
102
RTVSPost2010Prop39
140
1.0
102
RTVSPost2010PropOp39
 70
     1
102
RTVSPost2010Prop40
 90
        0
102
RTVSPost2010PropOp40
 70
     1
102
RTVSPost2010Prop41ColorIndex
 90
       18
102
RTVSPost2010Prop41ColorRGB
 90
        0
102
RTVSPost2010PropOp41
 70
     1
102
RTVSPost2010Prop42
 90
       50
102
RTVSPost2010PropOp42
 70
     1
102
RTVSPost2010Prop43
 90
        3
102
RTVSPost2010PropOp43
 70
     1
102
RTVSPost2010Prop44ColorIndex
 90
        5
102
RTVSPost2010Prop44ColorRGB
 90
      255
102
RTVSPost2010PropOp44
 70
     1
102
RTVSPost2010Prop45
280
     0
102
RTVSPost2010PropOp45
 70
     1
102
RTVSPost2010Prop46
 90
       50
102
RTVSPost2010PropOp46
 70
     1
102
RTVSPost2010Prop47
 90
       50
102
RTVSPost2010PropOp47
 70
     1
102
RTVSPost2010Prop48
 90
       50
102
RTVSPost2010PropOp48
 70
     1
102
RTVSPost2010Prop49
280
     0
102
RTVSPost2010PropOp49
 70
     1
102
RTVSPost2010Prop50
 90
       50
102
RTVSPost2010PropOp50
 70
     1
102
RTVSPost2010Prop51ColorIndex
 90
      256
102
RTVSPost2010Prop51ColorRGB
 90
-16777216
102
RTVSPost2010PropOp51
 70
     0
102
RTVSPost2010Prop52
140
1.0
102
RTVSPost2010PropOp52
 70
     0
102
RTVSPost2010Prop53
 90
        2
102
RTVSPost2010PropOp53
 70
     1
102
RTVSPost2010Prop54
  1
strokes_ogs.tif
102
RTVSPost2010PropOp54
 70
     1
102
RTVSPost2010Prop55
280
     0
102
RTVSPost2010PropOp55
 70
     1
102
RTVSPost2010Prop56
140
1.0
102
RTVSPost2010PropOp56
 70
     1
102
RTVSPost2010Prop57
140
1.0
102
RTVSPost2010PropOp57
 70
     1
  0
XRECORD
  5
F4
102
{ACAD_REACTORS
330
F3
102
}
330
F3
100
AcDbXrecord
280
     1
102
RTVSPost2010Prop28
280
     0
102
RTVSPost2010PropOp28
 70
     1
102
RTVSPost2010Prop29
280
     1
102
RTVSPost2010PropOp29
 70
     1
102
RTVSPost2010Prop30
280
     1
102
RTVSPost2010PropOp30
 70
     1
102
RTVSPost2010Prop31
280
     0
102
RTVSPost2010PropOp31
 70
     1
102
RTVSPost2010Prop32
280
     0
102
RTVSPost2010PropOp32
 70
     1
102
RTVSPost2010Prop33
280
     0
102
RTVSPost2010PropOp33
 70
     1
102
RTVSPost2010Prop34
280
     0
102
RTVSPost2010PropOp34
 70
     1
102
RTVSPost2010Prop35
280
     0
102
RTVSPost2010PropOp35
 70
     1
102
RTVSPost2010Prop36
280
     0
102
RTVSPost2010PropOp36
 70
     1
102
RTVSPost2010Prop37
 90
       50
102
RTVSPost2010PropOp37
 70
     1
102
RTVSPost2010Prop38
140
0.0
102
RTVSPost2010PropOp38
 70
     1
102
RTVSPost2010Prop39
140
1.0
102
RTVSPost2010PropOp39
 70
     1
102
RTVSPost2010Prop40
 90
        0
102
RTVSPost2010PropOp40
 70
     1
102
RTVSPost2010Prop41ColorIndex
 90
       18
102
RTVSPost2010Prop41ColorRGB
 90
        0
102
RTVSPost2010PropOp41
 70
     1
102
RTVSPost2010Prop42
 90
       50
102
RTVSPost2010PropOp42
 70
     1
102
RTVSPost2010Prop43
 90
        3
102
RTVSPost2010PropOp43
 70
     1
102
RTVSPost2010Prop44ColorIndex
 90
        5
102
RTVSPost2010Prop44ColorRGB
 90
      255
102
RTVSPost2010PropOp44
 70
     1
102
RTVSPost2010Prop45
280
     0
102
RTVSPost2010PropOp45
 70
     1
102
RTVSPost2010Prop46
 90
       50
102
RTVSPost2010PropOp46
 70
     1
102
RTVSPost2010Prop47
 90
       50
102
RTVSPost2010PropOp47
 70
     1
102
RTVSPost2010Prop48
 90
       50
102
RTVSPost2010PropOp48
 70
     1
102
RTVSPost2010Prop49
280
     0
102
RTVSPost2010PropOp49
 70
     1
102
RTVSPost2010Prop50
 90
       50
102
RTVSPost2010PropOp50
 70
     1
102
RTVSPost2010Prop51ColorIndex
 90
      256
102
RTVSPost2010Prop51ColorRGB
 90
-16777216
102
RTVSPost2010PropOp51
 70
     0
102
RTVSPost2010Prop52
140
1.0
102
RTVSPost2010PropOp52
 70
     0
102
RTVSPost2010Prop53
 90
        2
102
RTVSPost2010PropOp53
 70
     1
102
RTVSPost2010Prop54
  1
strokes_ogs.tif
102
RTVSPost2010PropOp54
 70
     1
102
RTVSPost2010Prop55
280
     0
102
RTVSPost2010PropOp55
 70
     1
102
RTVSPost2010Prop56
140
1.0
102
RTVSPost2010PropOp56
 70
     1
102
RTVSPost2010Prop57
140
1.0
102
RTVSPost2010PropOp57
 70
     1
  0
XRECORD
  5
FA
102
{ACAD_REACTORS
330
F9
102
}
330
F9
100
AcDbXrecord
280
     1
102
RTVSPost2010Prop28
280
     0
102
RTVSPost2010PropOp28
 70
     1
102
RTVSPost2010Prop29
280
     1
102
RTVSPost2010PropOp29
 70
     1
102
RTVSPost2010Prop30
280
     1
102
RTVSPost2010PropOp30
 70
     1
102
RTVSPost2010Prop31
280
     0
102
RTVSPost2010PropOp31
 70
     1
102
RTVSPost2010Prop32
280
     0
102
RTVSPost2010PropOp32
 70
     1
102
RTVSPost2010Prop33
280
     0
102
RTVSPost2010PropOp33
 70
     1
102
RTVSPost2010Prop34
280
     0
102
RTVSPost2010PropOp34
 70
     1
102
RTVSPost2010Prop35
280
     0
102
RTVSPost2010PropOp35
 70
     1
102
RTVSPost2010Prop36
280
     0
102
RTVSPost2010PropOp36
 70
     1
102
RTVSPost2010Prop37
 90
       50
102
RTVSPost2010PropOp37
 70
     1
102
RTVSPost2010Prop38
140
0.0
102
RTVSPost2010PropOp38
 70
     1
102
RTVSPost2010Prop39
140
1.0
102
RTVSPost2010PropOp39
 70
     1
102
RTVSPost2010Prop40
 90
        0
102
RTVSPost2010PropOp40
 70
     1
102
RTVSPost2010Prop41ColorIndex
 90
       18
102
RTVSPost2010Prop41ColorRGB
 90
        0
102
RTVSPost2010PropOp41
 70
     1
102
RTVSPost2010Prop42
 90
       50
102
RTVSPost2010PropOp42
 70
     1
102
RTVSPost2010Prop43
 90
        3
102
RTVSPost2010PropOp43
 70
     1
102
RTVSPost2010Prop44ColorIndex
 90
        5
102
RTVSPost2010Prop44ColorRGB
 90
      255
102
RTVSPost2010PropOp44
 70
     1
102
RTVSPost2010Prop45
280
     0
102
RTVSPost2010PropOp45
 70
     1
102
RTVSPost2010Prop46
 90
       50
102
RTVSPost2010PropOp46
 70
     1
102
RTVSPost2010Prop47
 90
       50
102
RTVSPost2010PropOp47
 70
     1
102
RTVSPost2010Prop48
 90
       50
102
RTVSPost2010PropOp48
 70
     1
102
RTVSPost2010Prop49
280
     0
102
RTVSPost2010PropOp49
 70
     1
102
RTVSPost2010Prop50
 90
       50
102
RTVSPost2010PropOp50
 70
     1
102
RTVSPost2010Prop51ColorIndex
 90
      256
102
RTVSPost2010Prop51ColorRGB
 90
-16777216
102
RTVSPost2010PropOp51
 70
     0
102
RTVSPost2010Prop52
140
1.0
102
RTVSPost2010PropOp52
 70
     0
102
RTVSPost2010Prop53
 90
        2
102
RTVSPost2010PropOp53
 70
     1
102
RTVSPost2010Prop54
  1
strokes_ogs.tif
102
RTVSPost2010PropOp54
 70
     1
102
RTVSPost2010Prop55
280
     0
102
RTVSPost2010PropOp55
 70
     1
102
RTVSPost2010Prop56
140
1.0
102
RTVSPost2010PropOp56
 70
     1
102
RTVSPost2010Prop57
140
1.0
102
RTVSPost2010PropOp57
 70
     1
  0
XRECORD
  5
10E
102
{ACAD_REACTORS
330
10D
102
}
330
10D
100
AcDbXrecord
280
     1
102
RTVSPost2010Prop28
280
     0
102
RTVSPost2010PropOp28
 70
     0
102
RTVSPost2010Prop29
280
     1
102
RTVSPost2010PropOp29
 70
     0
102
RTVSPost2010Prop30
280
     1
102
RTVSPost2010PropOp30
 70
     0
102
RTVSPost2010Prop31
280
     0
102
RTVSPost2010PropOp31
 70
     0
102
RTVSPost2010Prop32
280
     0
102
RTVSPost2010PropOp32
 70
     0
102
RTVSPost2010Prop33
280
     0
102
RTVSPost2010PropOp33
 70
     0
102
RTVSPost2010Prop34
280
     0
102
RTVSPost2010PropOp34
 70
     0
102
RTVSPost2010Prop35
280
     0
102
RTVSPost2010PropOp35
 70
     0
102
RTVSPost2010Prop36
280
     0
102
RTVSPost2010PropOp36
 70
     0
102
RTVSPost2010Prop37
 90
       50
102
RTVSPost2010PropOp37
 70
     0
102
RTVSPost2010Prop38
140
0.0
102
RTVSPost2010PropOp38
 70
     0
102
RTVSPost2010Prop39
140
1.0
102
RTVSPost2010PropOp39
 70
     0
102
RTVSPost2010Prop40
 90
        0
102
RTVSPost2010PropOp40
 70
     0
102
RTVSPost2010Prop41ColorIndex
 90
       18
102
RTVSPost2010Prop41ColorRGB
 90
        0
102
RTVSPost2010PropOp41
 70
     0
102
RTVSPost2010Prop42
 90
       50
102
RTVSPost2010PropOp42
 70
     0
102
RTVSPost2010Prop43
 90
        3
102
RTVSPost2010PropOp43
 70
     0
102
RTVSPost2010Prop44ColorIndex
 90
        5
102
RTVSPost2010Prop44ColorRGB
 90
      255
102
RTVSPost2010PropOp44
 70
     0
102
RTVSPost2010Prop45
280
     0
102
RTVSPost2010PropOp45
 70
     0
102
RTVSPost2010Prop46
 90
       50
102
RTVSPost2010PropOp46
 70
     0
102
RTVSPost2010Prop47
 90
       50
102
RTVSPost2010PropOp47
 70
     0
102
RTVSPost2010Prop48
 90
       50
102
RTVSPost2010PropOp48
 70
     0
102
RTVSPost2010Prop49
280
     0
102
RTVSPost2010PropOp49
 70
     0
102
RTVSPost2010Prop50
 90
       50
102
RTVSPost2010PropOp50
 70
     0
102
RTVSPost2010Prop51ColorIndex
 90
      256
102
RTVSPost2010Prop51ColorRGB
 90
-16777216
102
RTVSPost2010PropOp51
 70
     0
102
RTVSPost2010Prop52
140
1.0
102
RTVSPost2010PropOp52
 70
     0
102
RTVSPost2010Prop53
 90
        2
102
RTVSPost2010PropOp53
 70
     0
102
RTVSPost2010Prop54
  1
strokes_ogs.tif
102
RTVSPost2010PropOp54
 70
     0
102
RTVSPost2010Prop55
280
     0
102
RTVSPost2010PropOp55
 70
     0
102
RTVSPost2010Prop56
140
1.0
102
RTVSPost2010PropOp56
 70
     0
102
RTVSPost2010Prop57
140
1.0
102
RTVSPost2010PropOp57
 70
     0
  0
XRECORD
  5
108
102
{ACAD_REACTORS
330
107
102
}
330
107
100
AcDbXrecord
280
     1
102
RTVSPost2010Prop28
280
     0
102
RTVSPost2010PropOp28
 70
     1
102
RTVSPost2010Prop29
280
     1
102
RTVSPost2010PropOp29
 70
     1
102
RTVSPost2010Prop30
280
     1
102
RTVSPost2010PropOp30
 70
     1
102
RTVSPost2010Prop31
280
     0
102
RTVSPost2010PropOp31
 70
     1
102
RTVSPost2010Prop32
280
     0
102
RTVSPost2010PropOp32
 70
     1
102
RTVSPost2010Prop33
280
     0
102
RTVSPost2010PropOp33
 70
     1
102
RTVSPost2010Prop34
280
     0
102
RTVSPost2010PropOp34
 70
     1
102
RTVSPost2010Prop35
280
     0
102
RTVSPost2010PropOp35
 70
     1
102
RTVSPost2010Prop36
280
     0
102
RTVSPost2010PropOp36
 70
     1
102
RTVSPost2010Prop37
 90
       50
102
RTVSPost2010PropOp37
 70
     1
102
RTVSPost2010Prop38
140
0.0
102
RTVSPost2010PropOp38
 70
     1
102
RTVSPost2010Prop39
140
1.0
102
RTVSPost2010PropOp39
 70
     1
102
RTVSPost2010Prop40
 90
        0
102
RTVSPost2010PropOp40
 70
     1
102
RTVSPost2010Prop41ColorIndex
 90
       18
102
RTVSPost2010Prop41ColorRGB
 90
        0
102
RTVSPost2010PropOp41
 70
     1
102
RTVSPost2010Prop42
 90
       50
102
RTVSPost2010PropOp42
 70
     1
102
RTVSPost2010Prop43
 90
        3
102
RTVSPost2010PropOp43
 70
     1
102
RTVSPost2010Prop44ColorIndex
 90
        5
102
RTVSPost2010Prop44ColorRGB
 90
      255
102
RTVSPost2010PropOp44
 70
     1
102
RTVSPost2010Prop45
280
     0
102
RTVSPost2010PropOp45
 70
     1
102
RTVSPost2010Prop46
 90
       50
102
RTVSPost2010PropOp46
 70
     1
102
RTVSPost2010Prop47
 90
       50
102
RTVSPost2010PropOp47
 70
     1
102
RTVSPost2010Prop48
 90
       50
102
RTVSPost2010PropOp48
 70
     1
102
RTVSPost2010Prop49
280
     0
102
RTVSPost2010PropOp49
 70
     1
102
RTVSPost2010Prop50
 90
       50
102
RTVSPost2010PropOp50
 70
     1
102
RTVSPost2010Prop51ColorIndex
 90
      256
102
RTVSPost2010Prop51ColorRGB
 90
-16777216
102
RTVSPost2010PropOp51
 70
     0
102
RTVSPost2010Prop52
140
1.0
102
RTVSPost2010PropOp52
 70
     0
102
RTVSPost2010Prop53
 90
        2
102
RTVSPost2010PropOp53
 70
     1
102
RTVSPost2010Prop54
  1
strokes_ogs.tif
102
RTVSPost2010PropOp54
 70
     1
102
RTVSPost2010Prop55
280
     0
102
RTVSPost2010PropOp55
 70
     1
102
RTVSPost2010Prop56
140
1.0
102
RTVSPost2010PropOp56
 70
     1
102
RTVSPost2010Prop57
140
1.0
102
RTVSPost2010PropOp57
 70
     1
  0
XRECORD
  5
110
102
{ACAD_REACTORS
330
10F
102
}
330
10F
100
AcDbXrecord
280
     1
102
RTVSPost2010Prop28
280
     0
102
RTVSPost2010PropOp28
 70
     0
102
RTVSPost2010Prop29
280
     1
102
RTVSPost2010PropOp29
 70
     0
102
RTVSPost2010Prop30
280
     1
102
RTVSPost2010PropOp30
 70
     0
102
RTVSPost2010Prop31
280
     0
102
RTVSPost2010PropOp31
 70
     0
102
RTVSPost2010Prop32
280
     0
102
RTVSPost2010PropOp32
 70
     0
102
RTVSPost2010Prop33
280
     0
102
RTVSPost2010PropOp33
 70
     0
102
RTVSPost2010Prop34
280
     0
102
RTVSPost2010PropOp34
 70
     0
102
RTVSPost2010Prop35
280
     0
102
RTVSPost2010PropOp35
 70
     0
102
RTVSPost2010Prop36
280
     0
102
RTVSPost2010PropOp36
 70
     0
102
RTVSPost2010Prop37
 90
       50
102
RTVSPost2010PropOp37
 70
     0
102
RTVSPost2010Prop38
140
0.0
102
RTVSPost2010PropOp38
 70
     0
102
RTVSPost2010Prop39
140
1.0
102
RTVSPost2010PropOp39
 70
     0
102
RTVSPost2010Prop40
 90
        0
102
RTVSPost2010PropOp40
 70
     0
102
RTVSPost2010Prop41ColorIndex
 90
       18
102
RTVSPost2010Prop41ColorRGB
 90
        0
102
RTVSPost2010PropOp41
 70
     0
102
RTVSPost2010Prop42
 90
       50
102
RTVSPost2010PropOp42
 70
     0
102
RTVSPost2010Prop43
 90
        3
102
RTVSPost2010PropOp43
 70
     0
102
RTVSPost2010Prop44ColorIndex
 90
        5
102
RTVSPost2010Prop44ColorRGB
 90
      255
102
RTVSPost2010PropOp44
 70
     0
102
RTVSPost2010Prop45
280
     0
102
RTVSPost2010PropOp45
 70
     0
102
RTVSPost2010Prop46
 90
       50
102
RTVSPost2010PropOp46
 70
     0
102
RTVSPost2010Prop47
 90
       50
102
RTVSPost2010PropOp47
 70
     0
102
RTVSPost2010Prop48
 90
       50
102
RTVSPost2010PropOp48
 70
     0
102
RTVSPost2010Prop49
280
     0
102
RTVSPost2010PropOp49
 70
     0
102
RTVSPost2010Prop50
 90
       50
102
RTVSPost2010PropOp50
 70
     0
102
RTVSPost2010Prop51ColorIndex
 90
      256
102
RTVSPost2010Prop51ColorRGB
 90
-16777216
102
RTVSPost2010PropOp51
 70
     0
102
RTVSPost2010Prop52
140
1.0
102
RTVSPost2010PropOp52
 70
     0
102
RTVSPost2010Prop53
 90
        2
102
RTVSPost2010PropOp53
 70
     0
102
RTVSPost2010Prop54
  1
strokes_ogs.tif
102
RTVSPost2010PropOp54
 70
     0
102
RTVSPost2010Prop55
280
     0
102
RTVSPost2010PropOp55
 70
     0
102
RTVSPost2010Prop56
140
1.0
102
RTVSPost2010PropOp56
 70
     0
102
RTVSPost2010Prop57
140
1.0
102
RTVSPost2010PropOp57
 70
     0
  0
XRECORD
  5
FE
102
{ACAD_REACTORS
330
FD
102
}
330
FD
100
AcDbXrecord
280
     1
102
RTVSPost2010Prop28
280
     0
102
RTVSPost2010PropOp28
 70
     1
102
RTVSPost2010Prop29
280
     1
102
RTVSPost2010PropOp29
 70
     1
102
RTVSPost2010Prop30
280
     1
102
RTVSPost2010PropOp30
 70
     1
102
RTVSPost2010Prop31
280
     0
102
RTVSPost2010PropOp31
 70
     1
102
RTVSPost2010Prop32
280
     0
102
RTVSPost2010PropOp32
 70
     1
102
RTVSPost2010Prop33
280
     0
102
RTVSPost2010PropOp33
 70
     1
102
RTVSPost2010Prop34
280
     0
102
RTVSPost2010PropOp34
 70
     1
102
RTVSPost2010Prop35
280
     0
102
RTVSPost2010PropOp35
 70
     1
102
RTVSPost2010Prop36
280
     0
102
RTVSPost2010PropOp36
 70
     1
102
RTVSPost2010Prop37
 90
       50
102
RTVSPost2010PropOp37
 70
     1
102
RTVSPost2010Prop38
140
0.0
102
RTVSPost2010PropOp38
 70
     1
102
RTVSPost2010Prop39
140
1.0
102
RTVSPost2010PropOp39
 70
     1
102
RTVSPost2010Prop40
 90
        0
102
RTVSPost2010PropOp40
 70
     1
102
RTVSPost2010Prop41ColorIndex
 90
       18
102
RTVSPost2010Prop41ColorRGB
 90
        0
102
RTVSPost2010PropOp41
 70
     1
102
RTVSPost2010Prop42
 90
       50
102
RTVSPost2010PropOp42
 70
     1
102
RTVSPost2010Prop43
 90
        3
102
RTVSPost2010PropOp43
 70
     1
102
RTVSPost2010Prop44ColorIndex
 90
        5
102
RTVSPost2010Prop44ColorRGB
 90
      255
102
RTVSPost2010PropOp44
 70
     1
102
RTVSPost2010Prop45
280
     0
102
RTVSPost2010PropOp45
 70
     1
102
RTVSPost2010Prop46
 90
       50
102
RTVSPost2010PropOp46
 70
     1
102
RTVSPost2010Prop47
 90
       50
102
RTVSPost2010PropOp47
 70
     1
102
RTVSPost2010Prop48
 90
       50
102
RTVSPost2010PropOp48
 70
     1
102
RTVSPost2010Prop49
280
     0
102
RTVSPost2010PropOp49
 70
     1
102
RTVSPost2010Prop50
 90
       50
102
RTVSPost2010PropOp50
 70
     1
102
RTVSPost2010Prop51ColorIndex
 90
      256
102
RTVSPost2010Prop51ColorRGB
 90
-16777216
102
RTVSPost2010PropOp51
 70
     0
102
RTVSPost2010Prop52
140
1.0
102
RTVSPost2010PropOp52
 70
     0
102
RTVSPost2010Prop53
 90
        2
102
RTVSPost2010PropOp53
 70
     1
102
RTVSPost2010Prop54
  1
strokes_ogs.tif
102
RTVSPost2010PropOp54
 70
     1
102
RTVSPost2010Prop55
280
     0
102
RTVSPost2010PropOp55
 70
     1
102
RTVSPost2010Prop56
140
1.0
102
RTVSPost2010PropOp56
 70
     1
102
RTVSPost2010Prop57
140
1.0
102
RTVSPost2010PropOp57
 70
     1
  0
XRECORD
  5
11C
102
{ACAD_REACTORS
330
11B
102
}
330
11B
100
AcDbXrecord
280
     1
102
RTVSPost2010Prop28
280
     0
102
RTVSPost2010PropOp28
 70
     1
102
RTVSPost2010Prop29
280
     1
102
RTVSPost2010PropOp29
 70
     1
102
RTVSPost2010Prop30
280
     1
102
RTVSPost2010PropOp30
 70
     1
102
RTVSPost2010Prop31
280
     0
102
RTVSPost2010PropOp31
 70
     1
102
RTVSPost2010Prop32
280
     0
102
RTVSPost2010PropOp32
 70
     1
102
RTVSPost2010Prop33
280
     0
102
RTVSPost2010PropOp33
 70
     1
102
RTVSPost2010Prop34
280
     0
102
RTVSPost2010PropOp34
 70
     1
102
RTVSPost2010Prop35
280
     0
102
RTVSPost2010PropOp35
 70
     1
102
RTVSPost2010Prop36
280
     0
102
RTVSPost2010PropOp36
 70
     1
102
RTVSPost2010Prop37
 90
       50
102
RTVSPost2010PropOp37
 70
     1
102
RTVSPost2010Prop38
140
0.0
102
RTVSPost2010PropOp38
 70
     1
102
RTVSPost2010Prop39
140
1.0
102
RTVSPost2010PropOp39
 70
     1
102
RTVSPost2010Prop40
 90
        0
102
RTVSPost2010PropOp40
 70
     1
102
RTVSPost2010Prop41ColorIndex
 90
       18
102
RTVSPost2010Prop41ColorRGB
 90
        0
102
RTVSPost2010PropOp41
 70
     1
102
RTVSPost2010Prop42
 90
       50
102
RTVSPost2010PropOp42
 70
     1
102
RTVSPost2010Prop43
 90
        3
102
RTVSPost2010PropOp43
 70
     1
102
RTVSPost2010Prop44ColorIndex
 90
        5
102
RTVSPost2010Prop44ColorRGB
 90
      255
102
RTVSPost2010PropOp44
 70
     1
102
RTVSPost2010Prop45
280
     0
102
RTVSPost2010PropOp45
 70
     1
102
RTVSPost2010Prop46
 90
       50
102
RTVSPost2010PropOp46
 70
     1
102
RTVSPost2010Prop47
 90
       50
102
RTVSPost2010PropOp47
 70
     1
102
RTVSPost2010Prop48
 90
       50
102
RTVSPost2010PropOp48
 70
     1
102
RTVSPost2010Prop49
280
     0
102
RTVSPost2010PropOp49
 70
     1
102
RTVSPost2010Prop50
 90
       50
102
RTVSPost2010PropOp50
 70
     1
102
RTVSPost2010Prop51ColorIndex
 90
      256
102
RTVSPost2010Prop51ColorRGB
 90
-16777216
102
RTVSPost2010PropOp51
 70
     0
102
RTVSPost2010Prop52
140
1.0
102
RTVSPost2010PropOp52
 70
     0
102
RTVSPost2010Prop53
 90
        2
102
RTVSPost2010PropOp53
 70
     1
102
RTVSPost2010Prop54
  1
strokes_ogs.tif
102
RTVSPost2010PropOp54
 70
     1
102
RTVSPost2010Prop55
280
     0
102
RTVSPost2010PropOp55
 70
     1
102
RTVSPost2010Prop56
140
1.0
102
RTVSPost2010PropOp56
 70
     1
102
RTVSPost2010Prop57
140
1.0
102
RTVSPost2010PropOp57
 70
     1
  0
XRECORD
  5
11A
102
{ACAD_REACTORS
330
119
102
}
330
119
100
AcDbXrecord
280
     1
102
RTVSPost2010Prop28
280
     0
102
RTVSPost2010PropOp28
 70
     1
102
RTVSPost2010Prop29
280
     1
102
RTVSPost2010PropOp29
 70
     1
102
RTVSPost2010Prop30
280
     1
102
RTVSPost2010PropOp30
 70
     1
102
RTVSPost2010Prop31
280
     0
102
RTVSPost2010PropOp31
 70
     1
102
RTVSPost2010Prop32
280
     0
102
RTVSPost2010PropOp32
 70
     1
102
RTVSPost2010Prop33
280
     0
102
RTVSPost2010PropOp33
 70
     1
102
RTVSPost2010Prop34
280
     0
102
RTVSPost2010PropOp34
 70
     1
102
RTVSPost2010Prop35
280
     0
102
RTVSPost2010PropOp35
 70
     1
102
RTVSPost2010Prop36
280
     0
102
RTVSPost2010PropOp36
 70
     1
102
RTVSPost2010Prop37
 90
       50
102
RTVSPost2010PropOp37
 70
     1
102
RTVSPost2010Prop38
140
0.0
102
RTVSPost2010PropOp38
 70
     1
102
RTVSPost2010Prop39
140
1.0
102
RTVSPost2010PropOp39
 70
     1
102
RTVSPost2010Prop40
 90
        0
102
RTVSPost2010PropOp40
 70
     1
102
RTVSPost2010Prop41ColorIndex
 90
       18
102
RTVSPost2010Prop41ColorRGB
 90
        0
102
RTVSPost2010PropOp41
 70
     1
102
RTVSPost2010Prop42
 90
       50
102
RTVSPost2010PropOp42
 70
     1
102
RTVSPost2010Prop43
 90
        3
102
RTVSPost2010PropOp43
 70
     1
102
RTVSPost2010Prop44ColorIndex
 90
        5
102
RTVSPost2010Prop44ColorRGB
 90
      255
102
RTVSPost2010PropOp44
 70
     1
102
RTVSPost2010Prop45
280
     0
102
RTVSPost2010PropOp45
 70
     1
102
RTVSPost2010Prop46
 90
       50
102
RTVSPost2010PropOp46
 70
     1
102
RTVSPost2010Prop47
 90
       50
102
RTVSPost2010PropOp47
 70
     1
102
RTVSPost2010Prop48
 90
       50
102
RTVSPost2010PropOp48
 70
     1
102
RTVSPost2010Prop49
280
     0
102
RTVSPost2010PropOp49
 70
     1
102
RTVSPost2010Prop50
 90
       50
102
RTVSPost2010PropOp50
 70
     1
102
RTVSPost2010Prop51ColorIndex
 90
      256
102
RTVSPost2010Prop51ColorRGB
 90
-16777216
102
RTVSPost2010PropOp51
 70
     0
102
RTVSPost2010Prop52
140
1.0
102
RTVSPost2010PropOp52
 70
     0
102
RTVSPost2010Prop53
 90
        2
102
RTVSPost2010PropOp53
 70
     1
102
RTVSPost2010Prop54
  1
strokes_ogs.tif
102
RTVSPost2010PropOp54
 70
     1
102
RTVSPost2010Prop55
280
     0
102
RTVSPost2010PropOp55
 70
     1
102
RTVSPost2010Prop56
140
1.0
102
RTVSPost2010PropOp56
 70
     1
102
RTVSPost2010Prop57
140
1.0
102
RTVSPost2010PropOp57
 70
     1
  0
XRECORD
  5
114
102
{ACAD_REACTORS
330
113
102
}
330
113
100
AcDbXrecord
280
     1
102
RTVSPost2010Prop28
280
     0
102
RTVSPost2010PropOp28
 70
     1
102
RTVSPost2010Prop29
280
     1
102
RTVSPost2010PropOp29
 70
     1
102
RTVSPost2010Prop30
280
     1
102
RTVSPost2010PropOp30
 70
     1
102
RTVSPost2010Prop31
280
     0
102
RTVSPost2010PropOp31
 70
     1
102
RTVSPost2010Prop32
280
     0
102
RTVSPost2010PropOp32
 70
     1
102
RTVSPost2010Prop33
280
     0
102
RTVSPost2010PropOp33
 70
     1
102
RTVSPost2010Prop34
280
     0
102
RTVSPost2010PropOp34
 70
     1
102
RTVSPost2010Prop35
280
     0
102
RTVSPost2010PropOp35
 70
     1
102
RTVSPost2010Prop36
280
     0
102
RTVSPost2010PropOp36
 70
     1
102
RTVSPost2010Prop37
 90
       50
102
RTVSPost2010PropOp37
 70
     1
102
RTVSPost2010Prop38
140
0.0
102
RTVSPost2010PropOp38
 70
     1
102
RTVSPost2010Prop39
140
1.0
102
RTVSPost2010PropOp39
 70
     1
102
RTVSPost2010Prop40
 90
        0
102
RTVSPost2010PropOp40
 70
     1
102
RTVSPost2010Prop41ColorIndex
 90
       18
102
RTVSPost2010Prop41ColorRGB
 90
        0
102
RTVSPost2010PropOp41
 70
     1
102
RTVSPost2010Prop42
 90
       50
102
RTVSPost2010PropOp42
 70
     1
102
RTVSPost2010Prop43
 90
        3
102
RTVSPost2010PropOp43
 70
     1
102
RTVSPost2010Prop44ColorIndex
 90
        5
102
RTVSPost2010Prop44ColorRGB
 90
      255
102
RTVSPost2010PropOp44
 70
     1
102
RTVSPost2010Prop45
280
     0
102
RTVSPost2010PropOp45
 70
     1
102
RTVSPost2010Prop46
 90
       50
102
RTVSPost2010PropOp46
 70
     1
102
RTVSPost2010Prop47
 90
       50
102
RTVSPost2010PropOp47
 70
     1
102
RTVSPost2010Prop48
 90
       50
102
RTVSPost2010PropOp48
 70
     1
102
RTVSPost2010Prop49
280
     0
102
RTVSPost2010PropOp49
 70
     1
102
RTVSPost2010Prop50
 90
       50
102
RTVSPost2010PropOp50
 70
     1
102
RTVSPost2010Prop51ColorIndex
 90
      256
102
RTVSPost2010Prop51ColorRGB
 90
-16777216
102
RTVSPost2010PropOp51
 70
     0
102
RTVSPost2010Prop52
140
1.0
102
RTVSPost2010PropOp52
 70
     0
102
RTVSPost2010Prop53
 90
        2
102
RTVSPost2010PropOp53
 70
     1
102
RTVSPost2010Prop54
  1
strokes_ogs.tif
102
RTVSPost2010PropOp54
 70
     1
102
RTVSPost2010Prop55
280
     0
102
RTVSPost2010PropOp55
 70
     1
102
RTVSPost2010Prop56
140
1.0
102
RTVSPost2010PropOp56
 70
     1
102
RTVSPost2010Prop57
140
1.0
102
RTVSPost2010PropOp57
 70
     1
  0
XRECORD
  5
116
102
{ACAD_REACTORS
330
115
102
}
330
115
100
AcDbXrecord
280
     1
102
RTVSPost2010Prop28
280
     0
102
RTVSPost2010PropOp28
 70
     1
102
RTVSPost2010Prop29
280
     1
102
RTVSPost2010PropOp29
 70
     1
102
RTVSPost2010Prop30
280
     1
102
RTVSPost2010PropOp30
 70
     1
102
RTVSPost2010Prop31
280
     0
102
RTVSPost2010PropOp31
 70
     1
102
RTVSPost2010Prop32
280
     0
102
RTVSPost2010PropOp32
 70
     1
102
RTVSPost2010Prop33
280
     0
102
RTVSPost2010PropOp33
 70
     1
102
RTVSPost2010Prop34
280
     0
102
RTVSPost2010PropOp34
 70
     1
102
RTVSPost2010Prop35
280
     0
102
RTVSPost2010PropOp35
 70
     1
102
RTVSPost2010Prop36
280
     0
102
RTVSPost2010PropOp36
 70
     1
102
RTVSPost2010Prop37
 90
       50
102
RTVSPost2010PropOp37
 70
     1
102
RTVSPost2010Prop38
140
0.0
102
RTVSPost2010PropOp38
 70
     1
102
RTVSPost2010Prop39
140
1.0
102
RTVSPost2010PropOp39
 70
     1
102
RTVSPost2010Prop40
 90
        0
102
RTVSPost2010PropOp40
 70
     1
102
RTVSPost2010Prop41ColorIndex
 90
       18
102
RTVSPost2010Prop41ColorRGB
 90
        0
102
RTVSPost2010PropOp41
 70
     1
102
RTVSPost2010Prop42
 90
       50
102
RTVSPost2010PropOp42
 70
     1
102
RTVSPost2010Prop43
 90
        3
102
RTVSPost2010PropOp43
 70
     1
102
RTVSPost2010Prop44ColorIndex
 90
        5
102
RTVSPost2010Prop44ColorRGB
 90
      255
102
RTVSPost2010PropOp44
 70
     1
102
RTVSPost2010Prop45
280
     0
102
RTVSPost2010PropOp45
 70
     1
102
RTVSPost2010Prop46
 90
       50
102
RTVSPost2010PropOp46
 70
     1
102
RTVSPost2010Prop47
 90
       50
102
RTVSPost2010PropOp47
 70
     1
102
RTVSPost2010Prop48
 90
       50
102
RTVSPost2010PropOp48
 70
     1
102
RTVSPost2010Prop49
280
     0
102
RTVSPost2010PropOp49
 70
     1
102
RTVSPost2010Prop50
 90
       50
102
RTVSPost2010PropOp50
 70
     1
102
RTVSPost2010Prop51ColorIndex
 90
      256
102
RTVSPost2010Prop51ColorRGB
 90
-16777216
102
RTVSPost2010PropOp51
 70
     0
102
RTVSPost2010Prop52
140
1.0
102
RTVSPost2010PropOp52
 70
     0
102
RTVSPost2010Prop53
 90
        2
102
RTVSPost2010PropOp53
 70
     1
102
RTVSPost2010Prop54
  1
strokes_ogs.tif
102
RTVSPost2010PropOp54
 70
     1
102
RTVSPost2010Prop55
280
     0
102
RTVSPost2010PropOp55
 70
     1
102
RTVSPost2010Prop56
140
1.0
102
RTVSPost2010PropOp56
 70
     1
102
RTVSPost2010Prop57
140
1.0
102
RTVSPost2010PropOp57
 70
     1
  0
XRECORD
  5
106
102
{ACAD_REACTORS
330
105
102
}
330
105
100
AcDbXrecord
280
     1
102
RTVSPost2010Prop28
280
     0
102
RTVSPost2010PropOp28
 70
     1
102
RTVSPost2010Prop29
280
     1
102
RTVSPost2010PropOp29
 70
     1
102
RTVSPost2010Prop30
280
     1
102
RTVSPost2010PropOp30
 70
     1
102
RTVSPost2010Prop31
280
     0
102
RTVSPost2010PropOp31
 70
     1
102
RTVSPost2010Prop32
280
     0
102
RTVSPost2010PropOp32
 70
     1
102
RTVSPost2010Prop33
280
     0
102
RTVSPost2010PropOp33
 70
     1
102
RTVSPost2010Prop34
280
     0
102
RTVSPost2010PropOp34
 70
     1
102
RTVSPost2010Prop35
280
     0
102
RTVSPost2010PropOp35
 70
     1
102
RTVSPost2010Prop36
280
     0
102
RTVSPost2010PropOp36
 70
     1
102
RTVSPost2010Prop37
 90
       50
102
RTVSPost2010PropOp37
 70
     1
102
RTVSPost2010Prop38
140
0.0
102
RTVSPost2010PropOp38
 70
     1
102
RTVSPost2010Prop39
140
1.0
102
RTVSPost2010PropOp39
 70
     1
102
RTVSPost2010Prop40
 90
        0
102
RTVSPost2010PropOp40
 70
     1
102
RTVSPost2010Prop41ColorIndex
 90
       18
102
RTVSPost2010Prop41ColorRGB
 90
        0
102
RTVSPost2010PropOp41
 70
     1
102
RTVSPost2010Prop42
 90
       50
102
RTVSPost2010PropOp42
 70
     1
102
RTVSPost2010Prop43
 90
        3
102
RTVSPost2010PropOp43
 70
     1
102
RTVSPost2010Prop44ColorIndex
 90
        5
102
RTVSPost2010Prop44ColorRGB
 90
      255
102
RTVSPost2010PropOp44
 70
     1
102
RTVSPost2010Prop45
280
     0
102
RTVSPost2010PropOp45
 70
     1
102
RTVSPost2010Prop46
 90
       50
102
RTVSPost2010PropOp46
 70
     1
102
RTVSPost2010Prop47
 90
       50
102
RTVSPost2010PropOp47
 70
     1
102
RTVSPost2010Prop48
 90
       50
102
RTVSPost2010PropOp48
 70
     1
102
RTVSPost2010Prop49
280
     0
102
RTVSPost2010PropOp49
 70
     1
102
RTVSPost2010Prop50
 90
       50
102
RTVSPost2010PropOp50
 70
     1
102
RTVSPost2010Prop51ColorIndex
 90
      256
102
RTVSPost2010Prop51ColorRGB
 90
-16777216
102
RTVSPost2010PropOp51
 70
     0
102
RTVSPost2010Prop52
140
1.0
102
RTVSPost2010PropOp52
 70
     0
102
RTVSPost2010Prop53
 90
        2
102
RTVSPost2010PropOp53
 70
     1
102
RTVSPost2010Prop54
  1
strokes_ogs.tif
102
RTVSPost2010PropOp54
 70
     1
102
RTVSPost2010Prop55
280
     0
102
RTVSPost2010PropOp55
 70
     1
102
RTVSPost2010Prop56
140
1.0
102
RTVSPost2010PropOp56
 70
     1
102
RTVSPost2010Prop57
140
1.0
102
RTVSPost2010PropOp57
 70
     1
  0
XRECORD
  5
F8
102
{ACAD_REACTORS
330
F7
102
}
330
F7
100
AcDbXrecord
280
     1
102
RTVSPost2010Prop28
280
     0
102
RTVSPost2010PropOp28
 70
     1
102
RTVSPost2010Prop29
280
     1
102
RTVSPost2010PropOp29
 70
     1
102
RTVSPost2010Prop30
280
     1
102
RTVSPost2010PropOp30
 70
     1
102
RTVSPost2010Prop31
280
     0
102
RTVSPost2010PropOp31
 70
     1
102
RTVSPost2010Prop32
280
     0
102
RTVSPost2010PropOp32
 70
     1
102
RTVSPost2010Prop33
280
     0
102
RTVSPost2010PropOp33
 70
     1
102
RTVSPost2010Prop34
280
     0
102
RTVSPost2010PropOp34
 70
     1
102
RTVSPost2010Prop35
280
     0
102
RTVSPost2010PropOp35
 70
     1
102
RTVSPost2010Prop36
280
     0
102
RTVSPost2010PropOp36
 70
     1
102
RTVSPost2010Prop37
 90
       50
102
RTVSPost2010PropOp37
 70
     1
102
RTVSPost2010Prop38
140
0.0
102
RTVSPost2010PropOp38
 70
     1
102
RTVSPost2010Prop39
140
1.0
102
RTVSPost2010PropOp39
 70
     1
102
RTVSPost2010Prop40
 90
        0
102
RTVSPost2010PropOp40
 70
     1
102
RTVSPost2010Prop41ColorIndex
 90
       18
102
RTVSPost2010Prop41ColorRGB
 90
        0
102
RTVSPost2010PropOp41
 70
     1
102
RTVSPost2010Prop42
 90
       50
102
RTVSPost2010PropOp42
 70
     1
102
RTVSPost2010Prop43
 90
        3
102
RTVSPost2010PropOp43
 70
     1
102
RTVSPost2010Prop44ColorIndex
 90
        5
102
RTVSPost2010Prop44ColorRGB
 90
      255
102
RTVSPost2010PropOp44
 70
     1
102
RTVSPost2010Prop45
280
     0
102
RTVSPost2010PropOp45
 70
     1
102
RTVSPost2010Prop46
 90
       50
102
RTVSPost2010PropOp46
 70
     1
102
RTVSPost2010Prop47
 90
       50
102
RTVSPost2010PropOp47
 70
     1
102
RTVSPost2010Prop48
 90
       50
102
RTVSPost2010PropOp48
 70
     1
102
RTVSPost2010Prop49
280
     0
102
RTVSPost2010PropOp49
 70
     1
102
RTVSPost2010Prop50
 90
       50
102
RTVSPost2010PropOp50
 70
     1
102
RTVSPost2010Prop51ColorIndex
 90
      256
102
RTVSPost2010Prop51ColorRGB
 90
-16777216
102
RTVSPost2010PropOp51
 70
     0
102
RTVSPost2010Prop52
140
1.0
102
RTVSPost2010PropOp52
 70
     0
102
RTVSPost2010Prop53
 90
        2
102
RTVSPost2010PropOp53
 70
     1
102
RTVSPost2010Prop54
  1
strokes_ogs.tif
102
RTVSPost2010PropOp54
 70
     1
102
RTVSPost2010Prop55
280
     0
102
RTVSPost2010PropOp55
 70
     1
102
RTVSPost2010Prop56
140
1.0
102
RTVSPost2010PropOp56
 70
     1
102
RTVSPost2010Prop57
140
1.0
102
RTVSPost2010PropOp57
 70
     1
  0
XRECORD
  5
118
102
{ACAD_REACTORS
330
117
102
}
330
117
100
AcDbXrecord
280
     1
102
RTVSPost2010Prop28
280
     0
102
RTVSPost2010PropOp28
 70
     1
102
RTVSPost2010Prop29
280
     1
102
RTVSPost2010PropOp29
 70
     1
102
RTVSPost2010Prop30
280
     1
102
RTVSPost2010PropOp30
 70
     1
102
RTVSPost2010Prop31
280
     0
102
RTVSPost2010PropOp31
 70
     1
102
RTVSPost2010Prop32
280
     0
102
RTVSPost2010PropOp32
 70
     1
102
RTVSPost2010Prop33
280
     0
102
RTVSPost2010PropOp33
 70
     1
102
RTVSPost2010Prop34
280
     0
102
RTVSPost2010PropOp34
 70
     1
102
RTVSPost2010Prop35
280
     0
102
RTVSPost2010PropOp35
 70
     1
102
RTVSPost2010Prop36
280
     0
102
RTVSPost2010PropOp36
 70
     1
102
RTVSPost2010Prop37
 90
       50
102
RTVSPost2010PropOp37
 70
     1
102
RTVSPost2010Prop38
140
0.0
102
RTVSPost2010PropOp38
 70
     1
102
RTVSPost2010Prop39
140
1.0
102
RTVSPost2010PropOp39
 70
     1
102
RTVSPost2010Prop40
 90
        0
102
RTVSPost2010PropOp40
 70
     1
102
RTVSPost2010Prop41ColorIndex
 90
       18
102
RTVSPost2010Prop41ColorRGB
 90
        0
102
RTVSPost2010PropOp41
 70
     1
102
RTVSPost2010Prop42
 90
       50
102
RTVSPost2010PropOp42
 70
     1
102
RTVSPost2010Prop43
 90
        3
102
RTVSPost2010PropOp43
 70
     1
102
RTVSPost2010Prop44ColorIndex
 90
        5
102
RTVSPost2010Prop44ColorRGB
 90
      255
102
RTVSPost2010PropOp44
 70
     1
102
RTVSPost2010Prop45
280
     0
102
RTVSPost2010PropOp45
 70
     1
102
RTVSPost2010Prop46
 90
       50
102
RTVSPost2010PropOp46
 70
     1
102
RTVSPost2010Prop47
 90
       50
102
RTVSPost2010PropOp47
 70
     1
102
RTVSPost2010Prop48
 90
       50
102
RTVSPost2010PropOp48
 70
     1
102
RTVSPost2010Prop49
280
     0
102
RTVSPost2010PropOp49
 70
     1
102
RTVSPost2010Prop50
 90
       50
102
RTVSPost2010PropOp50
 70
     1
102
RTVSPost2010Prop51ColorIndex
 90
      256
102
RTVSPost2010Prop51ColorRGB
 90
-16777216
102
RTVSPost2010PropOp51
 70
     0
102
RTVSPost2010Prop52
140
1.0
102
RTVSPost2010PropOp52
 70
     0
102
RTVSPost2010Prop53
 90
        2
102
RTVSPost2010PropOp53
 70
     1
102
RTVSPost2010Prop54
  1
strokes_ogs.tif
102
RTVSPost2010PropOp54
 70
     1
102
RTVSPost2010Prop55
280
     0
102
RTVSPost2010PropOp55
 70
     1
102
RTVSPost2010Prop56
140
1.0
102
RTVSPost2010PropOp56
 70
     1
102
RTVSPost2010Prop57
140
1.0
102
RTVSPost2010PropOp57
 70
     1
  0
ENDSEC
  0
EOF
